Gitaristu.ru
Аккорды Табулатура Начинающим Мастер-класс Софт Видео Форум Блог
Новости Анонсы Гитары Гитаристы Статьи Аватарки Минусовки
Поиск





Популярные подборы




Настройка гитары

Новые комментарии






Главная > Аккорды > П > Песни у костра

Аккорды
Песни у костра
-
Афганистан (Стоит сосна...)



Подбор прислал: gitaristu.ru
В две гитары, эта мелодия, звучит очень мило:-))


1|---------|-----------------|-------------------------|-
2|-5-5---5-|-8-8-8-8-6-6-5-6-|---------6-6-6-6-5-5---5-|-
3|-----7---|-----------------|-7-7-5-7-------------7---|-
4|---------|-----------------|-------------------------|-
5|---------|-----------------|-------------------------|-
6|---------|-----------------|-------------------------|-

1|---------|-----------------|-------------------------|
2|-5-5-----|-8-8-8-8-6-6-5---|-------------------------|
3|-----7-5-|---------------7-|-7-7-5-4-4-5-4-4-2-5-4-2-|
4|---------|-----------------|-------------------------|
5|---------|-----------------|-------------------------|
6|---------|-----------------|-------------------------|

Аккорды, для аккомпанимента: Am, Dm, G, C, E
P.S. Лучше всего,аккомпанимент, играть обычным перебором...

Расскажи друзьям!




Войдите, используя Ваш аккаунт:



Забыли пароль?
Зарегистрироваться

Войти с помощью:

Привет, гитарист!

Пройди супер-курс по гитаре и порази всех своей игрой!

Забрать курс!
ВАМ ПОДАРКИ ОТ ПРОЕКТА
"ГИТАРНАЯ РЕВОЛЮЦИЯ"