Gitaristu.ru
Аккорды Табулатура Начинающим Мастер-класс Софт Видео Форум Блог
Новости Анонсы Гитары Гитаристы Статьи Аватарки Минусовки
Поиск





Популярные подборы




Настройка гитары






Главная > Аккорды > П > Песни у костра

Аккорды
Песни у костра
-
Вот идёт караван... (1)



Подбор прислал: gitaristu.ru
intro:
  С            E
1)-------------0
2)-------------0
3)-------------1
4)-2-2-0-------2
5)-------3-0---2
6)-------------0
  

intro            E
Вот идет караван
E             Am  Am
по зыбучим пескам
Am         C   C
он везет анашу
С                   E  E
В свой родной Пакистан

припев:

    Am              C                E                    
1)--0---------------0----------------0
2)--1--1-1-0--------1----------------0   
3)--2----------2-0--0----------------1
4)--2---------------2---2-2-0--------2
5)--0---------------3---------3--0---2   
6)--0---------------0----------------0
        Анаша, анаааша, анаша-жизнь моя,

   E                     Am                      С
1)-----------------------0-----------------------0
2)-----------------------1---1-1--0--------------1  
3)---2---2---0-----------2----------------2--0---0
4)-----------------2-0---2-----------------------2
5)-----------------------0-----------------------3  
6)-----------------------0-----------------------0
     мне с тобой, анааааша, даже смерть не страшна

Третий день без воды,
Всё идут верблюды.
Помоги нам Аллах,
Добрести до воды

припев


Караванщик Али
Забивает косяк
Три затяжки крутых
И в улёте чувак

припев

Вот вдали за рекой
Показался конвой
Караванщик Али
Вынул маузер свой

припев

И погиб караван
И погиб Гельманды
И в пустыне лежат
тридцать тонн анаши
Расскажи друзьям!




Войдите, используя Ваш аккаунт:



Забыли пароль?
Зарегистрироваться

Войти с помощью:

Привет, гитарист!

Пройди супер-курс по гитаре и порази всех своей игрой!

Забрать курс!
ВАМ ПОДАРКИ ОТ ПРОЕКТА
"ГИТАРНАЯ РЕВОЛЮЦИЯ"