Gitaristu.ru
Аккорды Табулатура Начинающим Мастер-класс Софт Видео Форум Блог
Новости Анонсы Гитары Гитаристы Статьи Аватарки Минусовки
Поиск





Популярные подборы




Настройка гитары

Новые комментарии






Главная > Аккорды > Р > Разное

Аккорды
Разное
-
Ламбада



Подбор прислал: gitaristu.ru
		Ламбада

		1|------5---3---1---0--------------1----0-----------------------|
		2|-----------------------3-----3------------3---1---3-----------|
		3|------------------------------------------------------2--0--2-|

-

Вступление:	[-5--3--1--0--------1--0-----------------------------
		-------------3--3--------3--1--3--------------------
		-----------------------------------2--0--2----------
		----------------------------------------------------
		----------------------------------------------------
		----------------------------------------------------

		-3--3--3--3-----------5--3--1--------1--0-----------
		-------------------3-----------3--3--------3--1--3--
		-------------3--3-----------------------------------
		----------------------------------------------------
		----------------------------------------------------
		----------------------------------------------------]

 		Бой: 1 всеми пальцами, кроме большого ударить по струнам вниз
 		2 подушечкой большого пальца удар вниз  3 ногтем большого пальца
 		удар вверх --2 РАЗА   потом 1 И 3   (   БОЙ ВОСЬМЁРКА   )

		Dm               B        C7             F
(1)		Ветер нам принес песню из далеких жарких стран,
		Dm               B        C7             F
		Там, где царство грез, пляски и бескрайний океан.
		Gm
		Ветер виноват в том, что ритм подхватив,
		C7          Dm
		Он по свету развеял мотив.
		Gm
		И чарует он, как тропический сон,
		C7          Dm
		Подпевает нам аккордеон...

(2)		Ах, ламбада - ритм, снова нам и снова повтори 
		Ах, ламбада - ритм, будем танцевать мы до зари 
		Пальмы, и цветы, и луна, и мечты
		В этом танце сопутствуют нам.
		Жажда красоты, ах, ламбада, где же ты
		С нами вместе поет океан.
Расскажи друзьям!




Войдите, используя Ваш аккаунт:



Забыли пароль?
Зарегистрироваться

Войти с помощью:

Привет, гитарист!

Пройди супер-курс по гитаре и порази всех своей игрой!

Забрать курс!
ВАМ ПОДАРКИ ОТ ПРОЕКТА
"ГИТАРНАЯ РЕВОЛЮЦИЯ"