Gitaristu.ru
Аккорды Табулатура Начинающим Мастер-класс Софт Видео Форум Блог
Новости Анонсы Гитары Гитаристы Статьи Аватарки Минусовки
Поиск





Популярные подборы




Настройка гитары

Новые комментарии






Главная > Аккорды > Р > Разное

Аккорды
Разное
-
Титаник (My Heart Will Go On)



Подбор прислал: gitaristu.ru
Intro 
 
-------4-----------7----5-4-0-------------4--------7--
---5-7-------7-5-7------------2---0---5-7----7-5-7----
--------------------------------2---------------------
------------------------------------------------------
------------------------------------------------------
------------------------------------------------------
 
-----7-9----7-----2--
---9-----------------
---------------------
---------------------
---------------------
---------------------
 
 
-------4----------7-----5-4-0-------------4----------7-
---5-7------7-5-7-------------2---0---5-7------7-5-7---
--------------------------------2----------------------
-------------------------------------------------------
-------------------------------------------------------
-------------------------------------------------------
 
------------------2----4--
-------2-4---5------------
-----4--------------------
---6----------------------
--------------------------
--------------------------
 
Pre-Chorus 
 
-------------------------------------------------------
----------------------------9--------------------------
---9-9-9--9-8-9---9-8-9---11--11----9-9-9--9-8-9---8---
-----------------------------------------------------9-
-------------------------------------------------------
-------------------------------------------------------
 
Chorus 
 
--------------------------------------------------------
---5-----7-------12-10-9-7---9-10-9--7--5-4-5--4-2------
--------------------------------------------------------
-----------9--------------------------------------------
--------------------------------------------------------
--------------------------------------------------------
 
On second time 
 
---------------------------------------------------------
---5---7--------12-10-9-7---9-10-9--7--5-4-5--5-4-5------
---------------------------------------------------------
----------9----------------------------------------------
---------------------------------------------------------
---------------------------------------------------------
 
------------------------
---7--9--7--5-----------
------------------------
------------------------
------------------------
------------------------


 
Intro:
C# B A B C# B A B 

E              B
Every night in my dreams

  A         E    B
I see you I feel you 

E             B           A
that is how I know you go on.

E              B
Far across the distance 

    A      E       B
and spaces between us 

E                B           A
you have come to show you go on.

Cm#    B          A        B 
Near, far, where ever you are

  Cm#               B             A
I believe that the heart does go on.

C#   B         A        B
Once more, you open the door

           C#         B
and you're here in my heart and 

   A             B      E
my heart will go on and on.

                  B
Love can touch us one time 

    A        E    B  
and last for life time 

E         B                 A
and never let go till we're gone.

E               B              A         E      B
Love was when I loved you, one true time I hold to

E                B         A
In my life we'll always go on.

Cm#    B        A        B 
Near, far wher ever you are 

  Cm#               B             A   
I believe that the heart does go on.

C#   B         A        B
Once more, you open the door

           Cm#         B
and you're here in my heart 

       A             B      Cm# B A
and my heart will go on and on.


Bridge

B C# B A 

Fm      Eb           Db        Eb
You're hear there's nothing I fear

      Fm            Eb            Db
and I know that my heart will go on.

Fm     Eb      Db        Eb
We'll stay forever this way 

        Fm          Eb
You are safe in my heart 

       Db            Eb     Fm  Eb Db Fm Eb Db Fm
and my heart will go on and on.


Outro :

Eb Db Ab Eb Db Ab


Расскажи друзьям!




Войдите, используя Ваш аккаунт:



Забыли пароль?
Зарегистрироваться

Войти с помощью:

Привет, гитарист!

Пройди супер-курс по гитаре и порази всех своей игрой!

Забрать курс!
ВАМ ПОДАРКИ ОТ ПРОЕКТА
"ГИТАРНАЯ РЕВОЛЮЦИЯ"