Gitaristu.ru
Аккорды Табулатура Начинающим Мастер-класс Софт Видео Форум Блог
Новости Анонсы Гитары Гитаристы Статьи Аватарки Минусовки
Поиск





Популярные подборы




Настройка гитары






Главная > Аккорды > С > Сектор Газа

Аккорды
Сектор Газа
-
Банка (2)



Подбор прислал: gitaristu.ru
Долго я искал эту партию в инете… но не нашел. Пришлось подобрать amp;#61514;

Вступление.

    Cm
E|-3-3-3---3--3--3--3----3--3--3-----3--5--3---|
H|-4-4-4-4-4--4--6--4----4--4--4--4--5--6--4---|
G|-------5------------------------5------------|
D|---------------------------------------------|
A|---------------------------------------------|
E|---------------------------------------------|


Куплет:

    Cm
E|-3-3-3---3--3--3--3---|
H|-4-4-4-4-4--4--6--4---|
G|-------5--------------|
D|----------------------|
A|----------------------|
E|----------------------|

     Fm

E|-1-1-1--|
H|-1-1-1--| 
G|--------|
D|--------|
A|--------|
E|--------|

И в таком духе дальше...

Cm 
Мы подошли к пивнухе, мы захотели пить,  
И пива с похмелухи мы хотели заглотить. 
   Fm                        
На улице по Цельсию - плюс тридцать два и пять.
           Cm 
Ну ща мы выпьем пару литров, на жару нам наплевать   
         B                           G# 
А ну-ка банку, банку, банку, банку, подавай   
Cm 
А мы ее разбили   
А ну-ка банку, банку, банку, банку, подавай   
А мы ее разбили ее, Юра   

И.т.д.

    Solo
  Cm                                          Fm
E|-------------------------------------------------------------8-8-8…-|
H|-1-4-1-----0-1-4----0-1-4-6-8--4-1--1-4--1-4-6-4-8-4-6--4-6---------|
G|-------0----------0-------------------------------------------------|
D|--------------------------------------------------------------------|
A|--------------------------------------------------------------------|
E|--------------------------------------------------------------------|
      Cm                                      A#(B)  G#
E|---------------------------------------------------------|
H|--6-4-1-1----0-4-1-1---0-4-1-1---------------------------|
G|-----------0---------0---------3-------------------------|
D|---------------------------------5--3--------8-----6-----|
A|---------------------------------------------8-----6-----|
E|---------------------------------------------6-----4-----|
    Cm            A#   G#    Cm
E|---------------------------13-13-13-13-11---------|
H|--4-4-1-------------------------------------------|
G|--------3-----------------------------------------|
D|-----------5-3---8---6----------------------------|
A|-----------------8---6----------------------------|
E|-----------------6---4----------------------------|

Соляк  примерный… подробно обломило подбирать… длительности сами продумаете.
Кстати, Народ, может кто знает, как гитарный звук настроить на проце, чтобы 
на «секторовский» был похож Скиньте на мыло, кто знает.
Расскажи друзьям!




Войдите, используя Ваш аккаунт:



Забыли пароль?
Зарегистрироваться

Войти с помощью:

Привет, гитарист!

Пройди супер-курс по гитаре и порази всех своей игрой!

Забрать курс!
ВАМ ПОДАРКИ ОТ ПРОЕКТА
"ГИТАРНАЯ РЕВОЛЮЦИЯ"