Gitaristu.ru
Аккорды Табулатура Начинающим Мастер-класс Софт Видео Форум Блог
Новости Анонсы Гитары Гитаристы Статьи Аватарки Минусовки
Поиск





Популярные подборы




Настройка гитары






Главная > Аккорды > С > Сектор Газа

Аккорды
Сектор Газа
-
Богатые тоже плачут (2)



Подбор прислал: gitaristu.ru
Куплет:

-5--5-5--5-5--10--101010--5--5-5-5--5-5--5-5--
-5--5-5--5-5--10--101010--5--5-5-5--5-5--5-5--
-3--3-3--3-3--8---8-8-8---3--3-3-3--3-3--3-3--
----------------------------------------------

-12-121212---5-    
-12-121212---5- 
-10-101010---3-
---------------
2 раза.

Припев:

-5-5-5--10-10--5-5------------5-5-5-----5--5-5--5-5-5-
-5-5-5--10-10--5-5--7--7-7-7--5-5-5-5-5-5--5-5--5-5-5-
-3-3-3--8--8---3-3--7--7-7-7--3-3-3-5-5-3--3-3--3-3-3-
--------------------5--5-5-5--------3-3---------------
2 раза.

Я сидел на помойке и ел пирожок, 
И капали слёзы на застывший кусок, 
Я весь замёрз и простыл давно, 
И меня утешало лишь одно: 

Что богатые тоже плачут  

А вчера на меня наехал мажор, 
Он крутой, он в прикиде, какой разговор, 
Но когда мой кулак внедрился в него, 
То я понял то, о чём не знал ничего: 

Что богатые тоже плачут  

Раздобыл я мелочь себе на бухло, 
Похмелился, я рад, ведь мне помогло  
А где-то рыдает богатый урод - 
Он отравился икрой и сейчас блюёт. 

Ведь богатые тоже плачут  
Что богатые тоже плачут   

Я сидел на помойке и ел пирожок, 
И капали слёзы на застывший кусок, 
Я весь замёрз и простыл давно, 
И меня утешало лишь одно: 

Что богатые тоже плачут  

Можно и аккордами, тогда:

E A///E H/// 2 раза.

E A E C#/// E Hb E E/// 2 раза.

...
Расскажи друзьям!




Войдите, используя Ваш аккаунт:



Забыли пароль?
Зарегистрироваться

Войти с помощью:

Привет, гитарист!

Пройди супер-курс по гитаре и порази всех своей игрой!

Забрать курс!
ВАМ ПОДАРКИ ОТ ПРОЕКТА
"ГИТАРНАЯ РЕВОЛЮЦИЯ"