Gitaristu.ru
Аккорды Табулатура Начинающим Мастер-класс Софт Видео Форум Блог
Новости Анонсы Гитары Гитаристы Статьи Аватарки Минусовки
Поиск





Популярные подборы




Настройка гитары






Главная > Аккорды > С > Сектор Газа

Аккорды
Сектор Газа
-
Демобилизация (1)



Подбор прислал: gitaristu.ru
  
    Am                  Am                A              Dm
1E-|------------------|-----------------|-0-0-0-------0----|
2H-|-1-0------1-0-----|-1-1-1-1-1-0-----|--------3-2-----3-|
3G-|-----2--------2---|-------------2---|------------------|
4D-|-------2--------2-|---------------2-|------------------|

 Dm                Am                 E            Am  A7
|-----------------|------------------|----------------|-1--0-|
|-3-3-3-3-3-3-1-0-|--------0-1-1-0---|-0-0-0------0---|------|
|-----------------|-2-2-2----------2-|--------2-1---2-|------|
|-----------------|------------------|----------------|------|

 Dm                Am                 E            Am  
|-----------------|------------------|----------------|
|-3-3-3-3-3-3-1-0-|--------0-1-1-0---|-0-0-0------0---|
|-----------------|-2-2-2----------2-|--------2-1---2-|
|-----------------|------------------|----------------|

Am
Скорый поезд к дому мчится,
Полечу домой как птица,
  A              Dm
Полечу как птица я.
Dm              
Жизнь начнется без авралов,  |
Am                           |
Сундуков и генералов,      | х2
E           Am   A7          |
Демобилизация    А-а         |


Я к тебе приеду вскоре,
Будет спать спокойно город
В кленах и акациях.
Я прижмусь к тебе щекою,  |  
Ты смахнешь слезу рукою,  | x2
Демобилизация    А-а      |


И пройдемся под луною 
Рядом с будущей женою,
Каблучками цокая.
Не боясь за то в награду  |
Получить пяток нарядов,   | x2
Демобилизация    А-а      |


Hm
И поднимем мы бокалы
В самых лучших ресторанах,
H             Em
Не боясь нотации
Em                                   
Не боясь за эту шутку       |
Hm                          |
Получить пятнадцать суток,  | x2
F#               H7         |
Демобилизация    А-а        |

C#m
Скорый поезд к дому мчится,
Прилетел домой как птица,
C#                F#m
Прилетел как птица я 
Fm#
Снял погоны и петлицы  |
C#m                    |
И уже успел напиться,  | x2
G#               C#7   |
Демобилизация    А-а   |

Вот так вот. Панки ХОЙ 
Расскажи друзьям!




Войдите, используя Ваш аккаунт:



Забыли пароль?
Зарегистрироваться

Войти с помощью:

Привет, гитарист!

Пройди супер-курс по гитаре и порази всех своей игрой!

Забрать курс!
ВАМ ПОДАРКИ ОТ ПРОЕКТА
"ГИТАРНАЯ РЕВОЛЮЦИЯ"