Gitaristu.ru
Аккорды Табулатура Начинающим Мастер-класс Софт Видео Форум Блог
Новости Анонсы Гитары Гитаристы Статьи Аватарки Минусовки
Поиск





Популярные подборы




Настройка гитары






Главная > Аккорды > С > Сектор Газа

Аккорды
Сектор Газа
-
Вурдалак (3)



Подбор прислал: gitaristu.ru
Riff-1
e|--------------------------------------------------------------------
b|--------------------------------------------------------------------
g|---------------5-5-5------------------------------------------------
D|-7-7-7--7-7-7--5-5-5--5-5-5-----------------------------------------
A|-7-7-7--7-7-7--3-3-3--5-5-5-----------------------------------------
E|-5-5-5--5-5-5---------3-3-3-----------------------------------------

Riff-2
e|--------------------------------------------------------------------
b|--------------------------------------------------------------------
g|-10-10-10-10-10-10-10-10--------------------------------------------
D|-10-10-10-10-10-10-10-10-5-5-5-5-5-5-5-5-7-7-7-7-7-7-7-7-7-7-10-7-7-
A|--8--8--8--8--8--8--8--8-5-5-5-5-5-5-5-5-7-7-7-7-7-7-7-7-7-7-10-7-7-
E|-------------------------3-3-3-3-3-3-3-3-5-5-5-5-5-5-5-5-5-5--8-5-5-

e|--------------------------------------------------------------------
b|--------------------------------------------------------------------
g|-----10-10-10-10-10-10-10-10----------------------------------------
D|-12--10-10-10-10-10-10-10-10-5-5-5-5-5-5-5-5------------------------
A|-12---8--8--8--8--8--8--8--8-5-5-5-5-5-5-5-5------------------------
E|-10--------------------------3-3-3-3-3-3-3-3------------------------

А я девчонку полюбил, по ночам я с ней гулял.  
Но она была не та, за кого я принимал.  
Я носил в ушах кресты, металлистом был тогда,  
Но девчонку за улыбку полюбил я без ума   

О-о-о, я влюбился в эту девушку, о-о   
О-о-о, я влюбился в эту девушку, о   

Снял я как-то кресты, с металлизмом завязал,  
Подарил я ей цветы, но дар речи потерял:  
Обнажила вдруг клыки и вцепилась, словно рак.  
И я понял, что она настоящий вурдалак   

О-о-о, я влюбился в вурдалака, а-а-а   
О-о-о, я влюбился в вурдалака, aга   

Впали серые глаза, трупный запах изо рта,  
Золотистая коса стала синею тогда.  
А улыбка её - украшение лица -  
Лишь смертельная агония на роже мертвеца   

О-о-о, я влюбился в вурдалака, а-а-а   
О-о-о, я влюбился в вурдалака, aга   

Что случилося со мной А ведь я её любил.  
Но не знал я, что она была жителем могил.  
Умерла она ещё во времена царя Петра.  
А теперь из-за неё не дожил я до утра    

О-о-о, я влюбился в вурдалака, а-а-а   
О-о-о, я влюбился в вурдалака, aга   
О-о-о, я влюбился в вурдалака, а-а-а   
О-о-о, я влюбился в вурдалака, aга   

Так вот, соляк пришлите кто сможет.
Расскажи друзьям!




Войдите, используя Ваш аккаунт:



Забыли пароль?
Зарегистрироваться

Войти с помощью:

Привет, гитарист!

Пройди супер-курс по гитаре и порази всех своей игрой!

Забрать курс!
ВАМ ПОДАРКИ ОТ ПРОЕКТА
"ГИТАРНАЯ РЕВОЛЮЦИЯ"