Gitaristu.ru
Аккорды Табулатура Начинающим Мастер-класс Софт Видео Форум Блог
Новости Анонсы Гитары Гитаристы Статьи Аватарки Минусовки
Поиск





Популярные подборы




Настройка гитары

Новые комментарии






Главная > Аккорды > Ж > Жуки

Аккорды
Жуки
-
Йогурты



Подбор прислал: gitaristu.ru
		Йогурты

		     Am          Dm
(1)		Я люблю тебя, девчонка 
		       E           Am
		Чистой искренней любовью,
		        F            Dm
		Всё к ногам твоим девчонка,
		      E          Am
		К твоему всё изголовью.
		       A         Dm
		Только денег маловато,
		     G         C
		А вернее денег нету,
		       F         Dm
		Ни на плитку шоколада,
		      E        Am
		Ни на малую конфету.

		           Am        Dm        E           Am
Припев:		А вокруг: сникерсы, сникерсы, сникерсы - хуикерсы,
		Am      Dm      E          Am
		Баунти, баунти, баунти - хуяунти 
		 Am       Dm       G          C
		Йогурты, йогурты, йогурты - хуёгурты,
		Am         Dm      E   Am
		Лёгкие, воздушные йогурты 

(2)		А по синему по морю,
		Ходит-бродит пароходик
		Столько лет прошло, девчонка,
		Ничего не происходит.
		У других сверкает ёлка,
		На двоих накрытый ужин,
		А ты бросай меня, девчонка,
		Ну за чем такой я нужен.

Припев:		А вокруг: сникерсы, сникерсы, сникерсы - хуикерсы,
		Баунти, баунти, баунти - хуяунти 
		Йогурты, йогурты, йогурты - хуёгурты,
		Лёгкие, воздушные йогурты 

-

 		Тaк тyт я пoдoбpaл coлo звyчит oдин в oдин, ecли игpaть
 		yмeeте тo c игpaeте   

		1)---------------------------------------------------------------------
		2)--------------------------------------------------------------3-3-0--
		3)----------------9-9-7------------------7-7-5------5-5-2-2------------
		4)--10-10-7-7----------------9-9-6-6------------------------3-3--------
		5)------------7-7--------------------7-7-------------------------------
		6)---------------------------------------------------------------------

		1)-------------------------------------------------------------------
		2)--------------------------------------8-8-6------------------6-6-5-
		3)---4-4-1-1-----4-4-2------9-9-6-6----------------7-7-4-4-----------
		4)-----------2-2--------------------7-7--------------------5-5-------
		5)-------------------------------------------------------------------
		6)-------------------------------------------------------------------

		1)------------------------------------------------------------------
		2)----------------1-1-0---------------------------------------------
		3)----5-5-2-2----------------4-4-1-1-----4-4-2----------------------
		4)------------3-3--------------------2-2----------------------------
		5)------------------------------------------------------------------
		6)------------------------------------------------------------------

 		ДEPЗAЙТE   
Расскажи друзьям!




Войдите, используя Ваш аккаунт:



Забыли пароль?
Зарегистрироваться

Войти с помощью:

Привет, гитарист!

Пройди супер-курс по гитаре и порази всех своей игрой!

Забрать курс!
ВАМ ПОДАРКИ ОТ ПРОЕКТА
"ГИТАРНАЯ РЕВОЛЮЦИЯ"