Gitaristu.ru
Аккорды Табулатура Начинающим Мастер-класс Софт Видео Форум Блог
Новости Анонсы Гитары Гитаристы Статьи Аватарки Минусовки
Поиск





Популярные подборы




Настройка гитары






Главная > Аккорды > S > St Vincent

Аккорды
St Vincent
-
Jesus Saves I Spend bass (табулатура)



Подбор прислал: gitaristu.ru
-------------------------------------------------------------------------------
		  Jesus Saves, I Spend - St. Vincent
-------------------------------------------------------------------------------

 Tabbed by:dvanwyk
 Email:dustinvanwyk@yahoo.com

 Tuning:Standard

 Intro
G|--------------------------------------------|
D|-------------4-9/---------------------------|
A|--------------------------------------------|
E|7777----7777---------7777----7777-2/7-------|


 Verse x3
G|----------------------------------------|
D|-----------------------------4-/9-------|
A|----------------------------------------|
E|7777----7777----7777----7777------------|

G|-----------------|
D|-----------------|
A|-----------------|
E|7777----7777-----|

 Chorus x1
G|----------------|
D|----------------|
A|----------------|
E|77--777-7/2-----|

 x7
G|--------------|
D|--------------|
A|--------------|
E|7---777-7/2---|


 x2                                                         
G|----------------------------------------------|
D|-----9---------------------9------------------|
A|---9---9-----------------9---9----------------|  
E|77--------77--0-2--2--77--------77--3h5-5-----|

G|-------------------------------------------|
D|-----9--------------------9----------------|
A|---9---9----------------9---9--------------|
E|77--------77--3h-5--77--------77--0-2--2---|



 Chorus x1
G|----------------|
D|----------------|
A|----------------|
E|77--777-7/2-----|

 x7
G|--------------|
D|--------------|
A|--------------|
E|7---777-7/2---|

 
G|--------------------------------------------|
D|--------------------------------------------|
A|10~---------------------------9~------------|
E|--------------------------------------------|

G|--------------------------------------------|
D|--------------------------------------------|
A|--------------------------------------------|
E|3~-----------------------------2~-----------|


 X1
G|----------------------------------------------|
D|-----9---------------------9------------------|
A|---9---9-----------------9---9----------------|  
E|77--------77--0-2--2--77--------77--3h5-5-----|

 x2                                                         
G|----------------------------------------------|
D|-----9---------------------9------------------|
A|---9---9-----------------9---9----------------|  
E|77--------77--0-2--2--77--------77--3h5-5-----|

G|-------------------------------------------|
D|-----9--------------------9----------------|
A|---9---9----------------9---9--------------|
E|77--------77--3h-5--77--------77--0-2--2---|

 X1
G|----------------------------------------------|
D|-----9---------------------9------------------|
A|---9---9-----------------9---9----------------|  
E|77--------77--0-2--2--77--------77--3h5-5-----|


 X4
G|------------------------|
D|-----9---------9--------|
A|---9---9-----9---9------|  
E|77--------77------------|


G|--------------|
D|--------------|
A|10~-----------|
E|--------------|
Расскажи друзьям!




Войдите, используя Ваш аккаунт:



Забыли пароль?
Зарегистрироваться

Войти с помощью:

Привет, гитарист!

Пройди супер-курс по гитаре и порази всех своей игрой!

Забрать курс!
ВАМ ПОДАРКИ ОТ ПРОЕКТА
"ГИТАРНАЯ РЕВОЛЮЦИЯ"