Gitaristu.ru
Аккорды Табулатура Начинающим Мастер-класс Софт Видео Форум Блог
Новости Анонсы Гитары Гитаристы Статьи Аватарки Минусовки
Поиск





Популярные подборы




Настройка гитары






Главная > Аккорды > S > St Vincent

Аккорды
St Vincent
-
The Party bass (табулатура)



Подбор прислал: gitaristu.ru
-------------------------------------------------------------------------------
		  The Party - St. Vincent
-------------------------------------------------------------------------------

 Tabbed by:dvanwyk
 Email:dustinvanwyk@yahoo.com

 Tuning:Standard

 Verse x1
G|--------------------------------------------------------|
D|--------------------------------------------------------|
A|-------------/5--5--5--5-5---------------2--2--2--2-2---|
E|1--1--1--1-1----------------1--1--1--1-1----------------|

 Interlude x1
G|-----------------------------|
D|-----------------------------|
A|-------------/5--5--5--5-5---|
E|1--1--1--1-1-----------------|

 Verse x1

 Chorus x2
G|--------------------------|
D|---------------2--3--5----|
A|---------2--5-------------|
E|1--3--5-------------------|

 Interlude x1

 Verse x1

 Chorus x2

 Bridge x3
G|------------------------------------------------------------|
D|------------------------------------------------------------|
A|----------5~--------------------5~--------------------5~----|
E|1~------------------1~----3~----------1~--------3~----------|

G|-----------|
D|-----------|
A|-----------|
E|2~---------|
Расскажи друзьям!




Войдите, используя Ваш аккаунт:



Забыли пароль?
Зарегистрироваться

Войти с помощью:

Привет, гитарист!

Пройди супер-курс по гитаре и порази всех своей игрой!

Забрать курс!
ВАМ ПОДАРКИ ОТ ПРОЕКТА
"ГИТАРНАЯ РЕВОЛЮЦИЯ"