Gitaristu.ru
Аккорды Табулатура Начинающим Мастер-класс Софт Видео Форум Блог
Новости Анонсы Гитары Гитаристы Статьи Аватарки Минусовки
Поиск





Популярные подборы




Настройка гитары






Главная > Аккорды > S > St Vincent

Аккорды
St Vincent
-
The Strangers (табулатура)



Подбор прислал: gitaristu.ru
#----------------------------PLEASE NOTE-----------------------------#
# This represents the author's own work and interpretation of the    #
# song. To be used only for private study, scholarship, or research. #
#--------------------------------------------------------------------#


Artist: St. Vincent
 Album: Actor
  Song: The Strangers

Tabbed by: Cristian Mendez-Garcia

As played on Acoustic live on Lake Fever Sessions
www.lakefeversessions.com

Intro:

e--7-9-10--12--9----7-8-10---5p3----8p6---------|
B--7-------9---9----5--------3--3---6---6-8--10-|
G--7-------9---9----5--------3---3--6-----------|
D--7-------9---9----5--------3------5-----------|
A-----------------------------------------------|
E-----------------------------------------------|


The verse chords are: D / A / Em / A / G / Em / G / A

Here is how you play each chord:

Structure for D:
e------------------------|
B------------------------|
G------11---------11-----|
D----12--12-----12--12---|
A------------------------|
E-10---------10----------|

Structure for A:
e------------------------|
B------------------------|
G------6---------6-------|
D----7--7------7--7------|
A------------------------|
E-5---------5------------|

Structure for Em:
e------------------------|
B------------------------|
G------0---------0-------|
D----2---2-----2---2-----|
A------------------------|
E-0---------0------------|

Structure for G:
e------------------------|
B------------------------|
G------4---------4-------|
D----5---5-----5---5-----|
A------------------------|
E-3---------3------------|


VERSE:

D             A
Lover, I don
Расскажи друзьям!




Войдите, используя Ваш аккаунт:



Забыли пароль?
Зарегистрироваться

Войти с помощью:

Привет, гитарист!

Пройди супер-курс по гитаре и порази всех своей игрой!

Забрать курс!
ВАМ ПОДАРКИ ОТ ПРОЕКТА
"ГИТАРНАЯ РЕВОЛЮЦИЯ"