Gitaristu.ru
Аккорды Табулатура Начинающим Мастер-класс Софт Видео Форум Блог
Новости Анонсы Гитары Гитаристы Статьи Аватарки Минусовки
Поиск





Популярные подборы




Настройка гитары






Главная > Аккорды > S > St Vincent

Аккорды
St Vincent
-
What Me Worry bass (табулатура)



Подбор прислал: gitaristu.ru
-------------------------------------------------------------------------------
		  What Me Worry - St. Vincent
-------------------------------------------------------------------------------

 Tabbed by:dvanwyk
 Email:dustinvanwyk@yahoo.com

 Tuning:Standard

 Intro (0.03)
G|------------|
D|------------|
A|5~----------|
E|------------|

 Verse
G|------------------------------------------|
D|------------8~--8~---6-5------------------|
A|6~------5~----------------5~-----3-5------|
E|----6~------------------------6~----------|

G|------------------------------------------|
D|------------8~--8~---6-5------------------|
A|6~------5~----------------5~-------3------|
E|----6~------------------------6~-6--------|

 Chorus
G|----------------------------------------------------------------------|
D|----------------------------/7~-----------4--------5--------4---------|
A|4~--4~--4~--4~--3~--2~--1~--------7-----4---4----5---5----4---4-/8~---|
E|--------------------------------5----4~-------3~-------2~-------------|

 Verse

 Chorus


 Bridge
G|----------------------------------------------------------------------------------|
D|----8-8~----------------------------------------------------------------6~--6-6---|
A|------------------------3-4-5~--4~--3~--3~--6~-6-6--6/8~--8-8--9~--9-9------------|
E|6~--------6-7-8~--8-8~------------------------------------------------------------|

 x2
G|---------------------------------------------------------|
D|------8----------8----8~----8----8-6-5----8-8~-----------|
A|6~---------5~--------------------------5~----------5-----|
E|----6---6------6---6------6---6----------------6-8-------|

 Chorus
Расскажи друзьям!




Войдите, используя Ваш аккаунт:



Забыли пароль?
Зарегистрироваться

Войти с помощью:

Привет, гитарист!

Пройди супер-курс по гитаре и порази всех своей игрой!

Забрать курс!
ВАМ ПОДАРКИ ОТ ПРОЕКТА
"ГИТАРНАЯ РЕВОЛЮЦИЯ"