Gitaristu.ru
Аккорды Табулатура Начинающим Мастер-класс Софт Видео
Новости Анонсы Гитары Гитаристы Статьи Аватарки Минусовки
Поиск



Популярные подборы




Настройка гитары






Главная > Аккорды > A > Ac Dc

Аккорды
Ac Dc
-
Highway to hell (табулатура)

Не нашли аккорды к песне? Посмотрите на


Подбор прислал: gitaristu.ru


From: barrett@athena.cs.uga.edu (Richard Barrett)
Subject: TAB: AC/DC -- Highway To Hell

From RBARRETT@uga.cc.uga.edu Sat Feb  6 14:04:48 1993
To: barrett@athena.cs.uga.edu

Title: Highway To Hell
Artist: AC/DC

INTRO:
            A                 D/f#  G      D/f#  G     D/F#  G     D/F#   A
E------------------------------------------------------------------------------
B-----------2--2--2-----------3--3--3------3--3--3-----3--3--3------------2--2-
G-----------2--2--2-----------2--2--0------2--2--0-----2--2--0------2-----2--2-
D-----------2--2--2-----------0--0--0------0--0--0-----0--0--0------0-----2--2-
A-----------0--0--0-------------------------------------------------------0--0-
E-----------------------------2--2--3------2--2--3-----2--2--3------2----------



A A A
              D D/F# G              D D/F# G
     Livin' easy,        ...
D D/F# G       D/F#    A A
     Season ticket on a ...
A A A           D D/F# G             D D/F# G
     Askin' nothin,      ...
  D D/F# G     D/F#   A A
     Takin' ev'rythin' in ...



     Don't need reason, ...
     Ain't nothin' ...
     goin' down, ....E5  to PART C-1(Chorus)
 |------------------|------------------|-----------------||
 |------------------|------------------|-----------------||
 |------------------|------------------|-----------------||
 |------5-----------|-9-9-9-9-9-9-9-9--|-9-9-9-9-9-9--9--||
 |--5-5-5----5------|-7-7-7-7-7-7-7-7--|-7-7-7-7-7-7--7--||
 |--2-2-3----2---0--|-0-0-0-0-0-0-0-0--|-0-0-0-0-0-0--0--||
  1 amp; 2 amp; 3  amp; 4 amp;    1 amp; 2 amp; 3 amp; 4 amp;    1 amp; 2 amp; 3 amp;  4 amp;
  
  
 **INTRO: [PART V-1 2x]
  
 **VERSE 1: [PART V-1 3x; 4th x, go to V-2{see E5 below}]
       Livin' easy, ...
       Season ticket on a ...
       Askin' nothin'--...
       Takin' everything ...
       Don't need reason, ...
       Ain't nothing that ....
       Goin' down--...
       My friends are....{E5} be there, too-- [-PART C-1/Chorus 1]
  
  
 %PART C-1 [Chorus]--              [3 times]             [**     [*
   A5               D             G   D      A5        D             [to V-1]
 ||-------------------|----2-2----3---2----||----------2=|===2===|==2-------||
 ||-----------------3=|==3-3-3-3--3---3----||----------3=|===3===|==3-------||
 ||o--2---2---2--2--2=|==2-2-2-2--0---2---o||-2-2-2--2-2=|===2===|==2-------||
 ||o--2---2---2--2--0=|==0-0-0-0--0---0---o||-2-2-2--2-0=|===0===|==0-------||
 ||---0---0---0--0----|--------------------||-0-0-0--0---|-------|----------||
 ||-------------------|-----------3--------||------------|-------|----------||
      1   2   3  4  amp;    1 amp; 2 amp;  3   4       1 2 3  4 amp;---1234----123
  
 [*:: end of 2nd Chorus, go to PART C-2 from here...]
 [**:: middle of 3th Chorus, go to Part C-3 from here...]
  
 **CHORUS 1: [PART C-1]
       I'm on a Highway to ....
       Highway to Hell-- On ....
  
 **VERSE 2: [a` la Verse 1]
       No stop signs....
       Nobody's gonna ...
       Like a wheel, ...
       Nobody's gonna ....
       Hey, Satan--....
       Playin' in a ....
       Hey, mama, ....
       I'm on my way ....{E5} Promised ....[oh, poor Bon Scott ...]
  
 **CHORUS 2: [PART C-1--C-2]
       I'm on a Highway ...
       I'm on the Highway to ....
       [to PART C-2] --Don't ...
  
 %PART C-2 [tag to Chorus2]--
    D     G     D                         D     G     D        G    D   G
 |--2-----3-----2===|======2-----------|--2-----3-----2===|=2--3----2---3---||
 |--3-----3-----3===|======3-----------|--3-----3-----3===|=3--3----3---3---||
 |--2-----0-----2===|======2-----------|--2-----0-----2===|=2--0----2---0---||
 |--0-----0-----0===|======0-----------|--0-----0-----0===|=0--0----0---0---||
 |------------------|------------------|------------------|-----------------||
 |--------3---------|------------------|--------3---------|----3--------3---||
    1 amp; 2 amp; 3 amp; 4---------1234            1 amp; 2 amp; 3 amp; 4amp;----1  amp;2amp;  3   4
                       --Don't stop now--
  
 **LEAD TACIT [played over PART C-1]
   (I woulda trancribed Angus's lead, but I thought, hell, YOU can do just
     as well, jammin' on the A pentatonic minor scale  . . . Of course, a
       Gibson SG would help )
  
 **CHORUS 3: [PART C-1--C-3]
       I'm on a Highway to Hell....
       I'm on a Highway to .....[stutter-pause: PART C-3]
  
  
 %PART C-3 [stutter-pause in middle of 3rd Chorus]--
  A5             D  [lead gu. descending smear]
 |---------------.--|------------------|
 |---------------3--|---------------|
 |--2--2--2---2--2--|---------------|
 |--2--2--2---2--0--|---------------|
 |--0--0--0---0--0--|---------------|
 |------------------|------------------|
    1  2  3   4  amp;
   High__way  to--[stop]
  
 **CHORUS 3 (continued) [PART C-1...]
                     
       Highway to Hell--{I'm on a Highway to ....
       {Highway to Hell}Highway to ....
 [after Held-D chord:] 
       And I'm goin' down-- all the way--
  
 [then--A5 thirty-second-note extended strum (cliche 70's coda)]
  
       I'm on the ....
  
 [then--single staccato A5]

  *===*===*===*===*===*===*===*===*===*===*===*===*===*===*===*===*===*===*
  | Thomas C. Gannon | tgannon@charlie.usd.edu | U of SoDak (Vermillion)  |
  * ------------------------------- _-^-_ ------------------------------- *
  | --If I decide to practice a   / o )=    slight movement from right  |
  *  to left . . . or from left   {   /===}    to right . . . it's        *
  |     nobody's business but my    (=o=/    own. (_A_Day_for_Eeyore_)  |
  *===*===*===*===*===*===*===*===* ^-_=^ *===*===*===*===*===*===*===*===*


Другие подборы этого исполнителя

Расскажи друзьям!




Привет, гитарист!

Пройди супер-курс по гитаре и порази всех своей игрой!

Забрать курс!
ВАМ ПОДАРКИ ОТ ПРОЕКТА
"ГИТАРНАЯ РЕВОЛЮЦИЯ"