Gitaristu.ru
Аккорды Табулатура Начинающим Мастер-класс Софт Видео Форум Блог
Новости Анонсы Гитары Гитаристы Статьи Аватарки Минусовки
Поиск





Популярные подборы




Настройка гитары






Главная > Аккорды > B > Baby Animals

Аккорды
Baby Animals
-
One word (аккорды)



Подбор прислал: gitaristu.ru


One Word

Oh I wake up feeling the same way every day
And I'm aching
 Numb with the pain that I can't chase away
So I'm wondering
Who's taking up your sacred precious time living
 From day to day without a single sign
Would I lie Oh no

One word, one letter, one line
And I'd feel a whole lot better
One look would say it's alright
And I'd feel a whole lot better

My heart breaks
The way you turn your back and carry on
And my head hurts
 Cause I just can't work out why it all went wrong
So here I'm wondering
 oh the more I think the less I understand leaving
 Is easy when you know you're in command
Oh would I lie oh no

One word, one letter, one line
And I'd feel a whole lot better
One look would say it's alright
And I'd feel a whole lot better I said
Yes I'd feel a whole lot better now

Solo

Ooh would I try try to keep
Just a little something that means nothing to me
Ooh why pretend that I'm in that deep lord
I thought you knew me, oh yeah
Oh I just want

One word, one letter, one line
And I'd feel a whole lot better
One look would say it's alright now
And I'd feel a whole lot better

One word, one letter, one line
I just wanted it oh it's all I really wanted yeah
One look would say it's alright now
Say it's alright baby well whole lot better baby baby yeah


capo on 4th

Verse:  E B A E / E B A E
        A E D F#m E D B B

Chorus:  E A D A D A / E A D A D A

Solo:  E B A

Bridge:  A E F#m B A E C#m B

SOLO:  (not relative to capo)

E|--------------------------------13--13----11h13p11--------------|
B|13------------------------------/----------------------13p11---|
G|-------------------------------bend--------------------------13-|
D|--------------------------------up------------------------------|
A|----------------------------------------------------------------|
E|----------------------------------------------------------------|

E|----11~~--------------------------------------------------------|
B|13--------------------------------------------------------------|
G|----------------------------------------------------------------|
D|----------------------------------------------------6-------6---|
A|--------------------------------------------------------6-------|
E|----------------------------------------------------------------|

E|4---8-----------------------------------------------------------|
B|4---9-------------------9-------8---8---7---6-------6-----------|
G|--------------------8-----------8---8---7---6-------6-----------|
D|--------------------------------8---8---7---6-------6-------6---|
A|use-slide-----------------------------------------------6h8-----|
E|----------------------------------------------------------------|

E|--------------------------------11----10----9---8--4-----------|
B|----------------------------------------------------------------|
G|5----5----5-------------------12----11----10--------------------|
D|----------------6-------6---------------------------------------|
A|--------------------6-------------------------------------------|
E|----------------------------------------------------------------|
Baby Animals



Расскажи друзьям!




Войдите, используя Ваш аккаунт:



Забыли пароль?
Зарегистрироваться

Привет, гитарист!

Пройди супер-курс по гитаре и порази всех своей игрой!

Забрать курс!
ВАМ ПОДАРКИ ОТ ПРОЕКТА
"ГИТАРНАЯ РЕВОЛЮЦИЯ"