Gitaristu.ru
Аккорды Табулатура Начинающим Мастер-класс Софт Видео Форум Блог
Новости Анонсы Гитары Гитаристы Статьи Аватарки Минусовки
Поиск





Популярные подборы




Настройка гитары






Главная > Аккорды > B > Baby Animals

Аккорды
Baby Animals
-
Rush You (табулатура)



Подбор прислал: gitaristu.ru
Rush You -Baby Animals

Tabbed by peatemark@hotmail.com
Tune down a half step people 

Intro
|----------------|---------------|---------------------|----------|
|----------------|---------------|---------------------|----------|
|-9---999-999----|---------------|---------------------|----------|
|-9---999-999----|---7-5-----7-5-|---7-5-----5---------|---x3-----|
|-7---777-777----|-0-----057-----|-0------3-5-5--5-3-0-|----------| 
|-0---000-000----|---------------|---------------------|----------| 

(Riff 2)
2,3,4
|-----------------|----------------|-----------|---------------|-----|
|-----------------|----------------|-----------|---------------|-----|
|--2-------2
Расскажи друзьям!




Войдите, используя Ваш аккаунт:



Забыли пароль?
Зарегистрироваться

Привет, гитарист!

Пройди супер-курс по гитаре и порази всех своей игрой!

Забрать курс!
ВАМ ПОДАРКИ ОТ ПРОЕКТА
"ГИТАРНАЯ РЕВОЛЮЦИЯ"