Gitaristu.ru
Аккорды Табулатура Начинающим Мастер-класс Софт Видео Форум Блог
Новости Анонсы Гитары Гитаристы Статьи Аватарки Минусовки
Поиск





Популярные подборы




Настройка гитары






Главная > Аккорды > B > Baby Animals

Аккорды
Baby Animals
-
Working For The Enemy (табулатура)



Подбор прислал: gitaristu.ru
WORKING FOR THE ENEMY -  Baby Animals

Tabbed by peatemark@hotmail.com
Tune down half a step
b(1) = bend 1 step
b(2) = bend whole step

Intro			(Riff 1)
|---------------||---------------------------|------------------|-----|
|---------------||---------------------------|------------------|-----|
|---------------||-----------------4---------|----------------7-|-x2--|
|---------------||-----2~-------------4(b1)~~|---2---0----5---7-|-----|
|--3-2-0--------||----------5~~--------------|------------5---5-|-----|
|--------3-2-0--||-00-----0-----0------------|-0---0---0--3-----|-----|

Verse1
Have you ever wondered how a love
Can lift you up and then take you down
|----------|--------------------------------0~---|--------------------|	
|----------|--------------------------------0~---|--------------------|	
|-----9\---|--------------------------------9~---|--------------------|	
|-----9\---|--------------------------------9~---|--------------------|	
|-----7\---|-------------------------------------|-3~~---2-0---2-0----|	
|--00------|-------------------------------------|-----------3-----3--|	


In case you haven't noticed You're about to be a loser in this round
|--------------------------------|------------------------------------|
|--------------------------------|------------------------------------|
|--------------9\-------------7~-|---------9--------7\9---------9\7~~~|
|--------------9\-------------7~-|---------9--------7\9---------9\7~~-|
|--------------7\-------------5~-|---------7--------5\7---------------|
|----0----0---------0---0--------|--0--0-------0--0--------0-0--------|

Chorus
Tell yourself it's all too hard Working for the enemy
|----------------|-------------|---------------|----------|	
|----------------|-------------|---------------|----------|	
|-2--------------|---5-----7---|-2-------------|---5--4---|	
|-2--------------|---5-----7---|-2-------------|---5--4---|	
|-0-00-00-00-00--|---3-----5---|-0-00-00-00-00
Расскажи друзьям!




Войдите, используя Ваш аккаунт:



Забыли пароль?
Зарегистрироваться

Привет, гитарист!

Пройди супер-курс по гитаре и порази всех своей игрой!

Забрать курс!
ВАМ ПОДАРКИ ОТ ПРОЕКТА
"ГИТАРНАЯ РЕВОЛЮЦИЯ"