Gitaristu.ru
Аккорды Табулатура Начинающим Мастер-класс Софт Видео Форум Блог
Новости Анонсы Гитары Гитаристы Статьи Аватарки Минусовки
Поиск





Популярные подборы




Настройка гитары






Главная > Аккорды > B > Bad Acid Trip

Аккорды
Bad Acid Trip
-
Habits Of Clay (табулатура)



Подбор прислал: gitaristu.ru
Hey all you Bad Acid Trip fans i figured a few songs out from this band

Right now this wont be the whole tab but ill just had the bridge later

Drop D
D-A-D-G-B-E

(intro/chorus)
E|---------------------------------------------|
G|---------------------------------------------|
B|---------------------------------------------|
D|-10-10-10-7-7-7-9-9-9-5-5-5------------------|
A|-10-10-10-7-7-7-9-9-9-5-5-5------------------|  4X
D|-10-10-10-7-7-7-9-9-9-5-5-5------------------|

(verse)
E|-7---8--7--------3-------|
G|--8---9--8------4--------|                    4X
B|---9---10--9---5---------|
D|-------------------------|
A|-------------------------|
D|-------------------------|

(Chorus 8X)

(Bridge)

(chorus)
(Verse)
Расскажи друзьям!




Войдите, используя Ваш аккаунт:



Забыли пароль?
Зарегистрироваться

Привет, гитарист!

Пройди супер-курс по гитаре и порази всех своей игрой!

Забрать курс!
ВАМ ПОДАРКИ ОТ ПРОЕКТА
"ГИТАРНАЯ РЕВОЛЮЦИЯ"