Gitaristu.ru
Аккорды Табулатура Начинающим Мастер-класс Софт Видео Форум Блог
Новости Анонсы Гитары Гитаристы Статьи Аватарки Минусовки
Поиск





Популярные подборы




Настройка гитары






Главная > Аккорды > B > Bamboo

Аккорды
Bamboo
-
Hallelujah (табулатура)



Подбор прислал: gitaristu.ru
 Title: Hallelujah (solo)
 Artist: Bamboo
 Album: Light, Peace, Love
 Track No. 6
 Song Length: ?
 Transcribed by: Allan John G. Amisola 
 E-mail add: kogure_18spider@yahoo.com
 Date/Time: Thursday, September 22, 2005 - 9:37 pm
 
 
       Kung malupet kau kuha nyo "to, 
          Dapat alert ka sa tiempo nito ha, kac eto ung medyo pinaka-exiting a part kaya...
 
           Let the WAH WAH PEDAL begins!!!
   
 
 e|--------------------------------------------------------------------------------------------|
 B|----------8-------------8-------------8-------------8---------------------------------------|
 G|--------5---5---------5-------------5---5---------5---5~~-----------------------------------|
 D|----6/7---------7---7-----7~----6/7---------7---7-------------------------------------------|
 A|--------------------------------------------------------------------------------------------|
 E|--------------------------------------------------------------------------------------------|
 
 e|--------------------------------------------------------------------------------------------|
 B|----8-8--5-5--------------------------------------------------------------------------------|
 G|--------------7-7--5-5-5-4------------------------------------------------------------------|
 D|------------------------------5/7--5/7--5/7--5/7--(5/7)-------------------------------------|
 A|--------------------------------------------------------------------------------------------|
 E|--------------------------------------------------------------------------------------------|
 
 e|--------------------------------------------------------------------------------------------|
 B|----5-5--8-8--10-10-12-12-10-12----13-13--15-15--13-13--15-15--17~--------------------------|
 G|--------------------------------------------------------------------------------------------|
 D|--------------------------------------------------------------------------------------------|
 A|--------------------------------------------------------------------------------------------|
 E|--------------------------------------------------------------------------------------------|
 
 e|----17-17-------17-17-------17-------15h17----17----15/17--15/17--15/17--5/17--15/17\~------|
 B|----------17-17-------17-17----17----------17-----------------------------------------------|
 G|--------------------------------------------------------------------------------------------|
 D|--------------------------------------------------------------------------------------------|
 A|--------------------------------------------------------------------------------------------|
 E|--------------------------------------------------------------------------------------------|
 
 
        All Rights Reserved
          
Расскажи друзьям!




Войдите, используя Ваш аккаунт:



Забыли пароль?
Зарегистрироваться

Привет, гитарист!

Пройди супер-курс по гитаре и порази всех своей игрой!

Забрать курс!
ВАМ ПОДАРКИ ОТ ПРОЕКТА
"ГИТАРНАЯ РЕВОЛЮЦИЯ"