Gitaristu.ru
Аккорды Табулатура Начинающим Мастер-класс Софт Видео Форум Блог
Новости Анонсы Гитары Гитаристы Статьи Аватарки Минусовки
Поиск





Популярные подборы




Настройка гитары






Главная > Аккорды > B > Bamboo

Аккорды
Bamboo
-
Hallelujah bass (табулатура)



Подбор прислал: gitaristu.ru
                        Hallelujah 
                          Bamboo

Intro:
|-------------|-------------------|-----------|------------|
|-7--7--7-7-0-|-3--3--0-3-3-5-5-2-|-----------|------------|
|-------------|-------------------|-3--3--3/5-|5--2--2---2-|
|-------------|-------------------|-----------|------------|

|-------------|----------------|-------------|---------------|
|-------------|----------------|-------------|---------------|
|-0--0--0-0-0-|----------------|-3--3--3-3-3-|-5-5--2--2-2-2-|
|-------------|-1--1--1-1--1-1-|-------------|---------------|

|-------------|----------------|-------------|--------------|
|-------------|----------------|-------------|--------------|
|-0--0--0-0-0-|----------------|-3--3--3-3-3-|-5-5--2
Расскажи друзьям!




Войдите, используя Ваш аккаунт:



Забыли пароль?
Зарегистрироваться

Привет, гитарист!

Пройди супер-курс по гитаре и порази всех своей игрой!

Забрать курс!
ВАМ ПОДАРКИ ОТ ПРОЕКТА
"ГИТАРНАЯ РЕВОЛЮЦИЯ"