Gitaristu.ru
Аккорды Табулатура Начинающим Мастер-класс Софт Видео Форум Блог
Новости Анонсы Гитары Гитаристы Статьи Аватарки Минусовки
Поиск





Популярные подборы




Настройка гитары






Главная > Аккорды > B > Bamboo

Аккорды
Bamboo
-
Kailan (табулатура)



Подбор прислал: gitaristu.ru
Bamboo - Kailan
brought to you by:
Francis J.Q.S.
Lucena City SHC(BSN)
f_sario@yahoo.com

x-mute note
~-let ring/Vibrato
h-hammer
p-pull off
/-slide
^-bend




Interlude1-
|---------------------------------------------------------------|
|--------------------------------------------------15-----------|
|-/6-----------------------6/----------------11-12-----14~------|
|----7~--/9-5-----------------7~---/9-10-12---------------------|
|-------------7-5-3~--------------------------------------------|
|---------------------------------------------------------------|


REPEAT vERSE AND CHORUS
solo-
|--------------------------------------/10-9----------------------|
|----------------------------8---10-12---------10-8~--7h8p7-5~----|
|------------------------7-9--------------------------------------|
|----4-7----------7----9------------------------------------------|
|---7------7-9-10-------------------------------------------------|
|--5--------------------------------------------------------------|
   *** *
|-----------------------------------------------------------|
|-7-8-/10--7~-----------------------------------------------|
|-------------7-4-6^r(7)------------------------------------|
|------------------------7-4--------------------------------|
|-----------------------------5-4----5h7p5/4-4~-------------|
|-----------------------------------------------------------|


|----------------------------------/10-9-------------------|
|---------------------------8-7-8--------10p7--------------|
|------------------/7-6-7----------------------6-6^r(7)----|
|-----------5-4-5------------------------------------------|
|--/5-4-5--------------------------------------------------|
|----------------------------------------------------------|

|--------------------------------|
|-----8h10-10^r-8h10-8-----------|
|-/9-------------------9p7h9~-99-|
|--------------------------------|
|--------------------------------|
|--------------------------------|

09283150081

|-12-12-12-12-12-12-12-12-12-12-12-12-12-12-12-12-12-12-12-12-12-12-12-12-|
|-15^---15^---15^---15^---15^---15^---15^---15^---15^---15^---15^---15^---|
|-------------------------------------------------------------------------|
|-------------------------------------------------------------------------|
|-------------------------------------------------------------------------|
|-------------------------------------------------------------------------|

|-15^(17)/------------------------------------------------------|
|---------15-14-13-12~------15~-17~~----------------------------|
|---------------------------------------------------------------|
|---------------------------------------------------------------|
|---------------------------------------------------------------|
|---------------------------------------------------------------|


Расскажи друзьям!




Войдите, используя Ваш аккаунт:



Забыли пароль?
Зарегистрироваться

Привет, гитарист!

Пройди супер-курс по гитаре и порази всех своей игрой!

Забрать курс!
ВАМ ПОДАРКИ ОТ ПРОЕКТА
"ГИТАРНАЯ РЕВОЛЮЦИЯ"