Gitaristu.ru
Аккорды Табулатура Начинающим Мастер-класс Софт Видео Форум Блог
Новости Анонсы Гитары Гитаристы Статьи Аватарки Минусовки
Поиск





Популярные подборы




Настройка гитары






Главная > Аккорды > B > Bamboo

Аккорды
Bamboo
-
Kailan bass (табулатура)



Подбор прислал: gitaristu.ru
Title: Kailan
Artist: Bamboo
Album: Tomorrow Becomes Yesterday (2008)
Tabbed By: 'rebirth_bassist'
Tabbed: October 26, 2008


Intro:

G------------------------------------------------------------------|
D------------------------------------------------------------------|
A----------7-7-0h7-7------------5-5-0h5-5--------------------------|
E---5-5-------------------3-3--------------------------------------| 2x

G------------------------------------------------------------------|
D------------------------------------------------------------------|
A-----------------------------5-5-0h5-5----------------------------|
E---5-5--0-0-0-0--3-3----------------------------------------------| 2x


Verse 1:

G-------------------------------------------------------------------|
D-------------------------------------------------------------------|
A---5--5-5-0h5-5---3--3-3-0h3-3-------------------------------------|
E-------------------------------------------------------------------| 3x

G------------------------------------------------------------------|
D------------------------------------------------------------------|
A---5-5---7/9-7-5-3--2/3\2-----------------------------------------|
E-----------------------------------3------------------------------|


Refrain 1:

G------------------------------------------------------------------|
D------------------------------------------------------------------|
A---5~--3~--5~--3~--5----------------------------------------------|
E------------------------------------------------------------------|

		or

G----------5~-------------5~--7------------------------------------|
D------------------------------------------------------------------|
A---5~------------5~-----------------------------------------------|
E------------------------------------------------------------------|


Chorus 1:

G------------------------------------------------------------------|
D------------------------------------------------------------------|
A----------7-7-0h7-7------------5-5-0h5-5--------------------------|
E---5-5-------------------3-3--------------------------------------| 4x


1st Solo:

G------------------------------------------------------------------|
D------------------------------------------------------------------|
A---5--5-5-0h5-5---3--3-3-0h3-3------------------------------------|
E------------------------------------------------------------------|

G-------------------------------------------------------------------|
D----------------------------------12-------------------------------|
A---5-5----7/9-7-5-3-5/7/9------------------------------------------|
E-------------------------------------------------------------------|


Verse 2:

G-------------------------------------------------------------------|
D-------------------------------------------------------------------|
A---5--5-5-0h5-5---3--3-3-0h3-3-------------------------------------|
E-------------------------------------------------------------------| 2x

G------------------------------------------------------------------|
D------------------------------------------------------------------|
A---5-5--7/9-7-5-3--5/7-5------------------------------------------|
E----------------------------------3-------------------------------|

G------------------------------------------------------------------|
D------------------------------------------------------------------|
A---5-5--7/9-7-5-3--2/3\2------------------------------------------|
E----------------------------------3-------------------------------|

Refrain 2:

G------------------------------------------------------------------|
D------------------------------------------------------------------|
A---5~--3~--5~--3~--5----------------------------------------------|
E------------------------------------------------------------------|

		or

G----------5~-------------5~--7------------------------------------|
D------------------------------------------------------------------|
A---5~------------5~-----------------------------------------------|
E------------------------------------------------------------------|


Chorus 2:

G------------------------------------------------------------------|
D------------------------------------------------------------------|
A----------7-7-0h7-7---------5-5-0h5-5-----------------------------|
E---5-5-------------------3-3--------------------------------------| 4x


2nd Solo:

G----------------------------------------------------------------------|
D--------------------------------------------------7-5-----------------|
A--------------------7-7-7-7-7-7--5-5-5-5-5-5-----------7-5--7-5--4----|
E--5-5-5-5-5-5---------------------------------------------------------|

G------------------------------------------------------------------|
D------------------------------------------------------------------|
A--------------------7-7-7-7-7-7--5-5--7/9-7-5--5-5-5-5-5-5--------|
E--5-5-5-5-5-5-----------------------------------------------------|

G------------------------------------------------------------------|
D------------------------------------------------------------------|
A--------------------7-7-7-7-7-7--5-4-3-2~--2/5~-7~----------------|
E--5-5-5-5-5-5-----------------------------------------------------|


Bridge:

G------------------------------------------------------------------|
D------------------------------------------------------------------|
A----------7~----------------5~------------------------------------|
E---5-5---------------3-3------------------------------------------|

G------------------------------------------------------------------|
D------------------------------------5/7---------------------------|
A----------7~----------------5~------------------------------------|
E---5-5---------------3-3------------------------------------------|

G------------------------------------------------------------------|
D--5/7-6-4-2~----5-4-------------------------5-4-------------------|
A---------------------------5~---------7~--------5~----------------|
E----------------------------------5-7-----------------------------|

G------------------------------------------------------------------|
D------------------------------------------------------------------|
A----------7~----------------5~------------------------------------|
E---5-5---------------3-3------------------------------------------| 2x


Chorus 3:

G------------------------------------------------------------------|
D------------------------------------------------------------------|
A----------7-7-0h7-7---------5-5-0h5-5-----------------------------|
E---5-5-------------------3-3--------------------------------------| 7x

G------------------------------------------------------------------|
D------------------------------------------------------------------|
A----------7-7-0h7-7---------5~-5-5-5-5\0--------------------------|
E---5-5-------------------3-3--------------------------------------|


Outro: (Pause for a while)

G------------------------------------------------------------------|
D------------------------------------------------------------------|
A------------------------------------------------------------------|
E---5-5-5-5-5-5-5-5-5-5-5-5-5-5-5-5\0------------------------------|


| /  slide up
| \  slide down
| h  hammer-on
| p  pull-off
| ~  vibrato
| +  harmonic
| x  Mute note


ReBiRtH Band:
Vocalist- Christian Jan S. Ramirez
Bassist- Richwin Anthony F. Hernandez
Drummer- Vince Gerard O. Soguilon
Guitarist- Anthony Ace A. Sabado

http://www.rebirthband.multiply.com
http://www.friendster.com/rebirthband

BAMBOO ROCKS!!! ^_^
-'rebirth_bassist'
Расскажи друзьям!




Войдите, используя Ваш аккаунт:



Забыли пароль?
Зарегистрироваться

Привет, гитарист!

Пройди супер-курс по гитаре и порази всех своей игрой!

Забрать курс!
ВАМ ПОДАРКИ ОТ ПРОЕКТА
"ГИТАРНАЯ РЕВОЛЮЦИЯ"