Gitaristu.ru
Аккорды Табулатура Начинающим Мастер-класс Софт Видео Форум Блог
Новости Анонсы Гитары Гитаристы Статьи Аватарки Минусовки
Поиск





Популярные подборы




Настройка гитары






Главная > Аккорды > B > Bamboo

Аккорды
Bamboo
-
Probinsyana (табулатура)



Подбор прислал: gitaristu.ru
By-Francis
Location - Carmelite, Lucena City
Cp #- 09287150674
E-add- f_sario@yahoo.com  (friendster)add me!
School- Sacred Heart College


----------------------------------------------------------------------------
----------------------------------------------------------------------------

STANDARD TUNING-


 


INTRO:
1.
    PM  PM   PM  PM PM       PM  PM  PM  PM  PM 
e|-----------------------------------------------------|
B|-----------------------------------------------------|
G|-----------------------------------------------------|
D|----------------3------------------------3-----------|
A|--5-5-5-5-5---5--5--3------5-5-5-5-5---5--5--3-------|
E|-----------------------------------------------------|
  
e|-----------------------------------------------------|
B|-----------------------------------------------------|
G|-----------------------------------------------------|
D|--------------3----------------------3---------------|
A|--5^5^5^5^5^5^--5--3------5^5^5^5^5^5--5--3----------|
E|-----------------------------------------------------|

2.
e|---------------------|----------------------|
B|---------------------|----------------------|
G|---------------------|--5-3~------33333-----|
D|---------------------|--5-3~------33333-----|4x
A|-5-3^-5-3^~----------|--3-1~------11111-----|
E|-3-1^-3-1^~----------|----------------------|

3.
e|-----------------------------------------------|
B|-----------------------------------------------|
G|--7777777/55/7777777-----7777777/55/7777777----|2X
D|--7777777/55/7777777-----7777777/55/7777777----|
A|--5555555/33/5555555-----5555555/33/5555555----|
E|-----------------------------------------------|

VERSE1:
Ang probinsyana ay di basta-basta
Mahirap bolahin, kailangan haranahin

         
e|--------X--------X-------|
B|-------3--------3--------|
G|-----4---------3---------|
D|----5--HOLD---3---HOLD---|2X
A|---5---------X-----------|
E|--X----------------------|
-
Ang kanyang lakad, mabibighani ka

e|--X-X-X-X-----X-X-X-X-------|
B|--3-3-3-3-----3-3-3-3-------|
G|--4-4-4-4-----3-3-3-3-------|
D|--5-5-5-5-----3-3-3-3-------|
A|--5-5-5-5-----X-X-X-X-------|
E|--X-X-X-X-------------------|

Di biro, babaeng probinsyana
e|--X-X-X-X-----XXXX--------|
B|--3-3-3-3-----3333~-------|
G|--4-4-4-4-----3333~-------|
D|--5-5-5-5-----3333~-------|
A|--5-5-5-5-----XXXX--------|
E|--X-X-X-X-----------------|


[Refrain]
Mahirap amuhin ang probinsyana
Pag napaibig, wala kang duda
e|-----------------------------------------------|
B|-----------------------------------------------|
G|--7777777/55/7777777-----7777777/55/7777777----|2X
D|--7777777/55/7777777-----7777777/55/7777777----|
A|--5555555/33/5555555-----5555555/33/5555555----|
E|-----------------------------------------------|

VERSE2:
Pag sa umaga pisngi namumutla
Pag nakasaya maaakit ka

e|--------X--------X-------|
B|-------3--------3--------|
G|-----4---------3---------|
D|----5--HOLD---3---HOLD---|2X
A|---5---------X-----------|
E|--X----------------------|
-
Ang kanyang lakad, mabibighani ka
e|--X-X-X-X-----X-X-X-X-------|
B|--3-3-3-3-----3-3-3-3-------|
G|--4-4-4-4-----3-3-3-3-------|
D|--5-5-5-5-----3-3-3-3-------|
A|--5-5-5-5-----X-X-X-X-------|
E|--X-X-X-X-------------------|


Di biro, babaeng probinsyana
e|--X-X-X-X-----XXXX--------|
B|--3-3-3-3-----3333~-------|
G|--4-4-4-4-----3333~-------|
D|--5-5-5-5-----3333~-------|
A|--5-5-5-5-----XXXX--------|
E|--X-X-X-X-----------------|
REF-
Mahirap amuhin ang probinsyana
Pag napaibig, wala kang duda

e|-----------------------------------------------|
B|-----------------------------------------------|
G|--7777777/55/7777777-----7777777/55/7777777----|2X
D|--7777777/55/7777777-----7777777/55/7777777----|
A|--5555555/33/5555555-----5555555/33/5555555----|
E|-----------------------------------------------|

INTERLUDE:
e|---------------------|----------------------|
B|---------------------|----------------------|
G|---------------------|--5-3~------33333-----|
D|---------------------|--5-3~------33333-----|4x
A|-5-3^-5-3^~----------|--3-1~------11111-----|
E|-3-1^-3-1^~----------|----------------------|


Interlude-


    PM  PM   PM  PM PM       PM  PM  PM  PM  PM 
e|-----------------------------------------------------|
B|-----------------------------------------------------|
G|-----------------------------------------------------|
D|----------------3------------------------3-----------|
A|--5-5-5-5-5---5--5--3------5-5-5-5-5---5--5--3-------|
E|-----------------------------------------------------|
  
e|-----------------------------------------------------|
B|-----------------------------------------------------|
G|-----------------------------------------------------|
D|--------------3----------------------3---------------|
A|--5^5^5^5^5^5^--5--3------5^5^5^5^5^5--5--3----------|
E|-----------------------------------------------------|

SOLO:

e|------------------------------------|
B|------------------------------------|
G|-------------6----------------------|
D|----3h5-6b-7---7--5^-3---5^-3-------|2x
A|--5----------------------------5b---|
E|------------------------------------|

e|------------------------------------|
B|------------------------------------|
G|-------------8----------------------|
D|----5h7-8b-9---9---7^-5-----7^\-----|
A|--7----------------------------7b---|
E|------------------------------------|

or

e|------------------------------------|
B|------------------------------------|
G|-------------6----------------------|
D|----3h5-6b-7---7--5^-3---5p3-------|2x
A|--5----------------------------5b---|
E|------------------------------------|

e|------------------------------------|
B|------------------------------------|
G|-------------8----------------------|
D|----5h7-8b-9---9---7^-5----7p5------|
A|--7----------------------------7b---|
E|------------------------------------|


sabay nung torotot..hehehe...
e|----------------------|
B|----------------------|
G|----------------------|
D|----3-5---3-5---------|
A|--55----55------/7~---|
E|----------------/5~---|

e|---------------------|----------------------|
B|---------------------|----------------------|
G|---------------------|--5-3~------33333-----|
D|---------------------|--5-3~------33333-----|4x
A|-5-3^-5-3^~----------|--3-1~------11111-----|
E|-3-1^-3-1^~----------|----------------------|


e|-----------------------------------------------|
B|-----------------------------------------------|
G|--7777777/55/7777777-----7777777/55/7777777----|2X
D|--7777777/55/7777777-----7777777/55/7777777----|
A|--5555555/33/5555555-----5555555/33/5555555----|
E|-----------------------------------------------|
VERSE3:
Aking diwata saan ka pumunta
Lumuwas ng Maynila dala ng pangarap niya

e|----------|-------------|
B|----------|-------------|
G|---4/3/4--|---7/6/7^----|
D|---5/4/5--|---8/7/8^----|2X
A|----------|-------------|
E|----------|-------------|
-

Ang kanyang lakad mabibighani ka
e|--X-X-X-X-----X-X-X-X-------|
B|--3-3-3-3-----3-3-3-3-------|
G|--4-4-4-4-----3-3-3-3-------|
D|--5-5-5-5-----3-3-3-3-------|
A|--5-5-5-5-----X-X-X-X-------|
E|--X-X-X-X-------------------|

Nasaan na aking Maria 
e|--X-X-X-X-----XXXX--------|
B|--3-3-3-3-----3333~-------|
G|--4-4-4-4-----3333~-------|
D|--5-5-5-5-----3333~-------|
A|--5-5-5-5-----XXXX--------|
E|--X-X-X-X-----------------|


REF-
Mahirap amuhin ang probinsyana
Pag napaibig, wala kang duda

e|-----------------------------------------------|
B|-----------------------------------------------|
G|--7777777/55/7777777-----7777777/55/7777777----|2X
D|--7777777/55/7777777-----7777777/55/7777777----|
A|--5555555/33/5555555-----5555555/33/5555555----|
E|-----------------------------------------------|

outro-Probinsyana, probinsyana
e|---------------------|----------------------|  ----------|
B|---------------------|----------------------|  ----------|
G|---------------------|--5-3~----------------|  -3333333~-|
D|---------------------|--5-3~----------------|4x-3333333~-|
A|---------------------|--3-1~----------------|  -1111111~-|
D|-3-1^-3-1^~----------|----------------------|  ----------|



e|-------------------|
B|-------------------|
G|-------------------|
D|-----33-----3-5----|END
A|--55-----55--------|
E|-------------------|







PM-Palm Muted
b or ^-bend
/-slide
p-PULL OFF

by f_sario@yahoo.com 

Расскажи друзьям!




Войдите, используя Ваш аккаунт:



Забыли пароль?
Зарегистрироваться

Привет, гитарист!

Пройди супер-курс по гитаре и порази всех своей игрой!

Забрать курс!
ВАМ ПОДАРКИ ОТ ПРОЕКТА
"ГИТАРНАЯ РЕВОЛЮЦИЯ"