Gitaristu.ru
Аккорды Табулатура Начинающим Мастер-класс Софт Видео Форум Блог
Новости Анонсы Гитары Гитаристы Статьи Аватарки Минусовки
Поиск





Популярные подборы




Настройка гитары






Главная > Аккорды > B > Bamboo

Аккорды
Bamboo
-
Tatsulok bass (табулатура)



Подбор прислал: gitaristu.ru
this is my version of tatsulok bass tab

tabbed by: bry nieva

for more info or questions, email me at: bry_nieva@yahoo.com.sg

intro:
G----------------------|     G|---------------------|
D----------------------|     D|---------------------|
A-2-----4h5--2---------|  3x A|--2----4h5---7-------|
E--2-------------------|     E|---2-----------------|

verse1:
totoy bilisan mo, bilisan mo ang takbo.....
G|---------------------|
D|---------------------|
A|---------------------|
E|--7--5--7--3---------|

totoy tumalon ka, dumapa kung kailangan.....

G|---------------------|     G|-------------------------------| 
D|---------------------|     D|-------------------------------| 
A|---------------------|     A|--2----4h5---2---2---4h5--7----| 
E|--7--5--3--5---------|     E|---2--------------2------------| 

totoy makinig ka, wag kang magpagabe.....

G|---------------------|     G|---------------------| 
D|---------------------|     D|---------------------| 
A|---------------------|     A|--2---454-0----------| 
E|--7--5--7--3---------|     E|---2-----------------| 

pre-chorus:
hindi pulat dilaw tunay na magkalaban....

G|---------------------| 
D|---------------------| 
A|---------2-4-5-7~~~--| 
E|-3-2-3-2-------------| 

chorus:
habang may tatsulok, at sila ang nasa tuktok....

G|---------------------------------------| 
D|---------------------------------------| 
A|-2-2-----------2---4h5--2---2---4h5--7-|
E|----2-2-3--5----2------------2---------|

verse 2:
di ligtas ang hininga, kayraming mga tao....

G|--------------------|
D|--------------------|
A|--------------------|
E|--7--5--7--3--------|

totoy kumilos ka baligtarin ang tatsulok....

G|---------------------|     G|-----------------------| 
D|---------------------|     D|-----------------------| 
A|---------------------|     A|--2---4540-------------| 
E|--7--5--3--5---------|     E|---2-------------------| 

pre-chorus:

hindi pulat dilaw...

G|---------------------| 
D|---------------------| 
A|---------2-4-5-7~~~--| 
E|-3-2-3-2-------------| 

chorus:

habang may tatsulok, at sila ang nasa tuktok....

G|---------------------| 
D|---------------------| 
A|-2-2-----------22----|
E|----2-2-3--5---------|

adlib:
(wala pa to follow nlng hehe)


pa rate nlng po.. tnx.. ^_^


Расскажи друзьям!




Войдите, используя Ваш аккаунт:



Забыли пароль?
Зарегистрироваться

Привет, гитарист!

Пройди супер-курс по гитаре и порази всех своей игрой!

Забрать курс!
ВАМ ПОДАРКИ ОТ ПРОЕКТА
"ГИТАРНАЯ РЕВОЛЮЦИЯ"