Gitaristu.ru
Аккорды Табулатура Начинающим Мастер-класс Софт Видео Форум Блог
Новости Анонсы Гитары Гитаристы Статьи Аватарки Минусовки
Поиск





Популярные подборы




Настройка гитары






Главная > Аккорды > B > Bamboo

Аккорды
Bamboo
-
Umagang Kay Ganda (табулатура)



Подбор прислал: gitaristu.ru
Song            : Umagang Kay Ganda
Band            : Bamboo
Tabbed by       : Brandon Philip Llapitan
E add/cp no.    : brandon_rakista@yahoo.com/09064856396
Tuning          : Standard


98% correct.. 

Solo Part 1 : (1:56-2:15)
e-----------------------------------------------------------------------------------|
b--------------------------------------------------------/10~-8~-7~------10~(Pause)-|
g-/7~-6~--------6b7r6b7r6-------------/7~-6~---/9~-7~-6~------------9~--------------|
d--------7-----------------7-7/9~-7~---------7--------------------------------------|
a----------7~-7---------------------------------------------------------------------|
E-----------------------------------------------------------------------------------|


Solo Part 2 : (3:01-3:40)
e------------------------------------------------------------------------------|
b------------------------------------------7h8-7-------------------------------|
g------------------------xx-/7~-6~---------------9~-7-6------------------------|
d---xxx--------xx-/7~-5~-----------7--------------------7-9~---4h5-4-----------|
a-5-xxx-/5~-4~-----------------------7~------------------------------7~-5-7~---|
E---xxx------------------------------------------------------------------------|

e----------------------------------------------------------------------------------------|
b-----------------------------7h8-7------------------------------------------------------|
g-------------------x-7/9-7~--------9~-7-7/9~--9\\\\-------------------------------------|
d-------x-5p4-x-7p5----------------------------------------------------------------------|
a-x-5p4------------------------------------------------5p4--5p4--5p4--5p4--5p4--5p4--5p4-|
E----------------------------------------------------------------------------------------|

e-----------------------------------------------------------------------------------|
b-----------------------------------------------------------------7h8-7-------------|
g-----------------------------------------------------------------------9~-7-6------|
d-----------------------------------------------------55-4-7-9~----------------7-9~-|
a-5p4-5p4-5p4-5p4-7~---5p4--5p4--5p4--5p4--5p4-5p4-7~-------------------------------|
E-----------------------------------------------------------------------------------|

e-9h10-9----------------------------------------------10~-|
b--------10~-9-7~--7\\\\\\---------------------/10-8~-----|
g----------------------------------------/7-6~------------|
d----------------------------------/7-5~------------------|
a----------------------------/5-4~------------------------|
E---------------------------------------------------------|

Guitar Legend :
/ = slide up
\ = slide down
~ = vibrato 
b = bend 
r = release
x = muted note
p = pull
h = hammer
Расскажи друзьям!




Войдите, используя Ваш аккаунт:



Забыли пароль?
Зарегистрироваться

Привет, гитарист!

Пройди супер-курс по гитаре и порази всех своей игрой!

Забрать курс!
ВАМ ПОДАРКИ ОТ ПРОЕКТА
"ГИТАРНАЯ РЕВОЛЮЦИЯ"