Gitaristu.ru
Аккорды Табулатура Начинающим Мастер-класс Софт Видео Форум Блог
Новости Анонсы Гитары Гитаристы Статьи Аватарки Минусовки
Поиск





Популярные подборы




Настройка гитары






Главная > Аккорды > B > Bamboo

Аккорды
Bamboo
-
Umagang Kay Ganda bass (табулатура)



Подбор прислал: gitaristu.ru
Title: Umagang kay Ganda
Artist: Bamboo
Album: We Stand Alone Together
Tuning: Standard

intro:

G|---------------------------------------------------------|
D|---7----------5-----------------------------------5------|
A|-----------------------------------------------------5---|
E|----------------------5----------------------------------|
	Halika na,        Pumikit limutin ang problema

G|---------------------------------------------------------|
D|---7----------------7------------------------------------|
A|------------6-7-8-------------------------5--------------|
E|--------------------------------3------------------------|
	Hihintayin . . .

verse 1:

G|------------------------------------|
D|---------------------7------5-------|
A|------------------------------------|
E|---5-------3------------------------|
    Magpahinga, panaginip ang ikaliligaya

G|------------------------------------|
D|----------------------7-hold--------|
A|------------------------------------|
E|---5-------3------------------------|
         Darating din ang umaga

Chorus:

G|------------------------------------|
D|------------------------------------|
A|---2--------------4-----------------|
E|------------------------------------|

    Basta
Расскажи друзьям!




Войдите, используя Ваш аккаунт:



Забыли пароль?
Зарегистрироваться

Привет, гитарист!

Пройди супер-курс по гитаре и порази всех своей игрой!

Забрать курс!
ВАМ ПОДАРКИ ОТ ПРОЕКТА
"ГИТАРНАЯ РЕВОЛЮЦИЯ"