Gitaristu.ru
Аккорды Табулатура Начинающим Мастер-класс Софт Видео Форум Блог
Новости Анонсы Гитары Гитаристы Статьи Аватарки Минусовки
Поиск





Популярные подборы




Настройка гитары






Главная > Аккорды > B > Band Of Horses

Аккорды
Band Of Horses
-
Is There A Ghost (табулатура)



Подбор прислал: gitaristu.ru
This is the first single from the new record, "Cease to Begin"
Its pretty simple, but a great song.
You can listen to it here before the album is released:
www.myspace.com/bandofhorses


IS THERE A GHOST?
~ BAND OF HORSES
CEASE TO BEGIN
SUB POP RECORDS, 2007

Play the whole intro twice through, and on the second time, play Pt II twice.

Guitar I

Intro (0:01)
Pt I 
e----------------------------------------------|
B----------------------------------------------|
G---6--6--6--6--6--/--11---11---11---11---11---|
D----6--6--6--6--6-/----11---11---11---11---11-|
A--4--4--4--4--4---/-9----9----9----9----9-----|
E----------------------------------------------|x3

Pt II 
e------------------------------------------------------------|
B------------------------------------------------------------|
G----13----13----13----13----13--/--11---11---11---11---11---|
D------13----13----13----13----13/----11---11---11---11---11-|
A--11----11----11----11----11----/-9----9----9----9----9-----|
E------------------------------------------------------------|x1



Guitar II

Verse (0:58)
Pt I   x2
e--------------------------------------------------|
B--------------------------------------------------|
G--6--6--6--6--6--6--6--6--6--6--6--6--6--6--6--6--|
D--6--6--6--6--6--6--6--6--6--6--6--6--6--6--6--6--|
A--4--4--4--4--4--4--4--4--4--4--4--4--4--4--4--4--|
E--------------------------------------------------|

Verse Pt II  x4
e--------------------------------------------------|
B--------------------------------------------------|
G--6--6--6--6--6--6--6--6--6--6--6--6--6--6--6--6--|
D--6--6--6--6--6--6--6--6--6--6--6--6--6--6--6--6--|
A--4--4--4--4--4--4--4--4--4--4--4--4--4--4--4--4--|
E--------------------------------------------------|

e--------------------------------------------------|
B--------------------------------------------------|
G--11-11-11-11-11-11-11-11-11-11-11-11-11-11-11-11-|
D--11-11-11-11-11-11-11-11-11-11-11-11-11-11-11-11-|
A--9--9--9--9--9--9--9--9--9--9--9--9--9--9--9--9--|
E--------------------------------------------------|

Verse Pt III x2
e--------------------------------------------------|
B--------------------------------------------------|
G--13-13-13-13-13-13-13-13-13-13-13-13-13-13-13-13-|
D--13-13-13-13-13-13-13-13-13-13-13-13-13-13-13-13-|
A--11-11-11-11-11-11-11-11-11-11-11-11-11-11-11-11-|
E--------------------------------------------------|

e--------------------------------------------------|
B--------------------------------------------------|
G--11-11-11-11-11-11-11-11-11-11-11-11-11-11-11-11-|
D--11-11-11-11-11-11-11-11-11-11-11-11-11-11-11-11-|
A--9--9--9--9--9--9--9--9--9--9--9--9--9--9--9--9--|
E--------------------------------------------------|

Repeat Pts II & III until the end


Guitar I:

Solo thing (2:29)
e---------------------------------------|
B--------------------------------9------|
G--8-1010-8-1010-8-1010-8-1010-8---10~--|
D---------------------------------------|
A---------------------------------------|
E---------------------------------------|

e---------------------------------------|
B-------------------------------9~------|
G--8-1010-8-1010-8-1010-8-1010----10~---|
D---------------------------------------|
A---------------------------------------|
E---------------------------------------|

e---------------------------------------|
B--------------------------------9------|
G--8-1010-8-1010-8-1010-8-1010-8---10~--|
D---------------------------------------|
A---------------------------------------|
E---------------------------------------|

e---------------------------------------|
B-------------------------------9~------|
G--8-1010-8-1010-8-1010-8-1010----10~---|
D---------------------------------------|
A---------------------------------------|
E---------------------------------------|

e---------------------------------------------------------------------------------|
B---------------------------------------------------------------------------------|
G--8-1010-8-1010-8-1010-8-1010-8-1010-8-1010-8-1010-8-1010-8-1010-8-1010-8-1010~--|
D----------------------------------------------------------------------------10~--|
A----------------------------------------------------------------------------8~~--|
E---------------------------------------------------------------------------------|
Расскажи друзьям!




Войдите, используя Ваш аккаунт:



Забыли пароль?
Зарегистрироваться

Привет, гитарист!

Пройди супер-курс по гитаре и порази всех своей игрой!

Забрать курс!
ВАМ ПОДАРКИ ОТ ПРОЕКТА
"ГИТАРНАЯ РЕВОЛЮЦИЯ"