Gitaristu.ru
Аккорды Табулатура Начинающим Мастер-класс Софт Видео Форум Блог
Новости Анонсы Гитары Гитаристы Статьи Аватарки Минусовки
Поиск





Популярные подборы




Настройка гитары






Главная > Аккорды > B > Bane

Аккорды
Bane
-
What Keeps Us Here (табулатура)



Подбор прислал: gitaristu.ru
h - hammer on
/ - slide
x - dead note

Intro x8
e|------------------|
B|------------------|
G|-9/7--7/6--6-6-6--|
D|-x-x--x-x--x-x-x--|
A|-7/5--5/4--4-4-4--|
E|------------------|

Fill x1
e|-----------------------------|
B|-----------------------------|
G|-8-8-8--8-8-8--8-8-8--8-8-8--|
D|-8-8-8--8-8-8--8-8-8--8-8-8--|
A|-6-6-6--6-6-6--6-6-6--6-6-6--|
E|-----------------------------|

Verse x2
e|---------------------------------------------------|
B|---------------------------------------------------|
G|------7/8---------7/8---------7/8------------------|
D|-5/6--7/8--6/5/6--7/8--6/5/6--7/8--6/5/6--6-6-6-6--|
A|-5/6--5/6--6/5/6--5/6--6/5/6--5/6--6/5/6--6-6-6-6--|
E|-3/4-------4/3/4-------4/3/4-------4/3/4--4-4-4-4--|

Chorus x1
e|--------------------------------------|
B|--------------------------------------|
G|-8-8-8--10-10-10--12-12-12--15-15-15--|
D|-x-x-x--x--x--x---x--x--x---x--x--x---|
A|-6-6-6--8--8--8---10-10-10--10-10-10--|
E|--------------------------------------|

Verse x2
e|---------------------------------------------------|
B|---------------------------------------------------|
G|------7/8---------7/8---------7/8------------------|
D|-5/6--7/8--6/5/6--7/8--6/5/6--7/8--6/5/6--6-6-6-6--|
A|-5/6--5/6--6/5/6--5/6--6/5/6--5/6--6/5/6--6-6-6-6--|
E|-3/4-------4/3/4-------4/3/4-------4/3/4--4-4-4-4--|

Chorus x1
e|--------------------------------------|
B|--------------------------------------|
G|-8-8-8--10-10-10--12-12-12--15-15-15--|
D|-x-x-x--x--x--x---x--x--x---x--x--x---|
A|-6-6-6--8--8--8---10-10-10--10-10-10--|
E|--------------------------------------|

Fill x4
e|---------------|
B|---------------|
G|-----3---------|
D|-3-5-3-5-------|
A|-3-5-1-5-------|
E|-1-3---3-2h3-3-|

Breakdown x7
e|---------------------------|
B|---------------------------|
G|---------------3-----------|
D|-3-3-3--5-5-5--3--5--------|
A|-3-3-3--5-5-5--1--5--------|
E|-1-1-1--3-3-3-----3-2h3-3--|

End x2
e|---------------|
B|---------------|
G|-----3---------|
D|-3-5-3-5-------|
A|-3-5-1-5-------|
E|-1-3---3-2h3-3-|
Расскажи друзьям!




Войдите, используя Ваш аккаунт:



Забыли пароль?
Зарегистрироваться

Привет, гитарист!

Пройди супер-курс по гитаре и порази всех своей игрой!

Забрать курс!
ВАМ ПОДАРКИ ОТ ПРОЕКТА
"ГИТАРНАЯ РЕВОЛЮЦИЯ"