Gitaristu.ru
Аккорды Табулатура Начинающим Мастер-класс Софт Видео Форум Блог
Новости Анонсы Гитары Гитаристы Статьи Аватарки Минусовки
Поиск





Популярные подборы




Настройка гитары






Главная > Аккорды > B > Bang Camaro

Аккорды
Bang Camaro
-
Nightlife Commando (табулатура)



Подбор прислал: gitaristu.ru
NIGHTLIFE COMMANDO.  By Bang Camaro. (Intro) tab

h= hammer on
\= slide down
/= slide up
~= let ring


INTRO:

(play it slow)
pattern:
e|----------------------------------------|
B|----------------------------------------|
G|-0\4--4-2-4~\7--5--5-4-5-4~-----------5-|
D|----------------------------7--7-5-7----|
A|----------------------------------------|
E|----------------------------------------|


e|------------------------------------------|
B|------------------------------------0-----|
G|-7-5-4-5-4-2-4--------------------2---2---|
D|---------------7-5-7-5-4-4~-----0-------0-|
A|-------------------------5~-0h2-----------|
E|------------------------------------------|
				
e|----------------------------------------0-----|
B|-1\3~-1----------1--------1-------------------|	
G|-2\4~-2----------2------2---2---------2---2---|	
D|---------3\5-3~--2----2-------2-----2-------2-|
A|--------------------0-------------0-----------|
E|----------------------------------------------|


Then:

e|----------------------------------------|
B|----------------------------------------|
G|-0\4--4-2-4~\7--5--5-4-5-4~-----------5-|
D|----------------------------7--7-5-7----|
A|----------------------------------------|
E|----------------------------------------|

e|------------------------------------------|
B|------------------------------------0-----|
G|-7-5-4-5-4-2-4--------------------2---2---|
D|---------------7-5-7-5-4-4~-----0-------0-|
A|-------------------------5~-0h2-----------|
E|------------------------------------------|

		   SLOWLY STRUM DOWN on both
e|--------------------------0-----------------------|
B|-1\3~-1----------1--------1-----------------------|	
G|-2\4~-2----------2--------2-----------------------|	
D|---------3\5-3~--2--------2-----------------------|
A|--------------------------0-----------------------|
E|--------------------------------------------------|
Расскажи друзьям!




Войдите, используя Ваш аккаунт:



Забыли пароль?
Зарегистрироваться

Привет, гитарист!

Пройди супер-курс по гитаре и порази всех своей игрой!

Забрать курс!
ВАМ ПОДАРКИ ОТ ПРОЕКТА
"ГИТАРНАЯ РЕВОЛЮЦИЯ"