Gitaristu.ru
Аккорды Табулатура Начинающим Мастер-класс Софт Видео Форум Блог
Новости Анонсы Гитары Гитаристы Статьи Аватарки Минусовки
Поиск





Популярные подборы




Настройка гитары






Главная > Аккорды > B > Bang Camaro

Аккорды
Bang Camaro
-
Out On The Streets (табулатура)



Подбор прислал: gitaristu.ru
-------------------------------------------------------------------------------
OUT ON THE STREETS - Bang Camaro
-------------------------------------------------------------------------------
Tabbed by: tut89
Email: btut89@yahoo.com

Tuning: Standard EADGBe

Main Riff
e|---------------------------------------------------------------------------|
B|---------------------------------------------------------------------------|
G|---6---4-6---4-2---2-------------------------------------------------------|
D|---6---4-6---4-2---2-------------------------------------------------------|
A|---4---2-4---2-0---0-------2---2-------------------------------------------|
E|---------------------0-2-4---4---4-----------------------------------------|

Verse Riff
e|---------------------------------------------------------------------------|
B|---------------------------------------------------------------------------|
G|---------------------------------------------------------------------------|
D|-----------6-----------7-----------6-----------7-----------6~~-------------|
A|---4-4-4-4---4-4-4-4-4---4-4-4-4-4---4-4-4-4-4---4-4-4-4-4-----------------|
E|---------------------------------------------------------------------------|
     . . . . <   . . . . <   . . . . <   . . . . < . . . . . <
This is really fast and it was kind of hard to tab, so I might be off a little bit on the accent notes.


e|-----------------------------------------------------------------------------|
B|-----------------------------------------------------------------------------|
G|---------------2-2---4-4-----------------------------------------------------|
D|---4-4---2-2---2-2---4-4-----------------------------------------------------|
A|---4-4---2-2---0-0---2-2-----------------------------------------------------|
E|---2-2---0-0-----------------------------------------------------------------|

Well there
Расскажи друзьям!




Войдите, используя Ваш аккаунт:



Забыли пароль?
Зарегистрироваться

Привет, гитарист!

Пройди супер-курс по гитаре и порази всех своей игрой!

Забрать курс!
ВАМ ПОДАРКИ ОТ ПРОЕКТА
"ГИТАРНАЯ РЕВОЛЮЦИЯ"