Gitaristu.ru
Аккорды Табулатура Начинающим Мастер-класс Софт Видео Форум Блог
Новости Анонсы Гитары Гитаристы Статьи Аватарки Минусовки
Поиск





Популярные подборы




Настройка гитары






Главная > Аккорды > B > Bang Camaro

Аккорды
Bang Camaro
-
Push Push Lady Lighting bass (табулатура)



Подбор прислал: gitaristu.ru
I only know the intro/verse and the bridge of the song, but i don't know the chorus and 
ending, if I do, I'll send
- Heitor


intro/verse
G]-------------------|-------------------|-------------------|
D]-------------------|-------------------|-------------------|
A]-------------------|4--------4-6-6-6-6-|8------------------|
E]-----------6-6-6-6-|-2-2-2-2-----------|-4-4-4444-5-6-6-6-6|

bridge
G]-------------------|-------------------|-------------------|
D]-------------------|-----------8-8-----|-------------------|
A]-------------------|--8----------------|----------6--------|
E]-----------6-6-6---|6---6-6-8-6-6------|6-6-6---4---4-6-6/0|
Расскажи друзьям!




Войдите, используя Ваш аккаунт:



Забыли пароль?
Зарегистрироваться

Привет, гитарист!

Пройди супер-курс по гитаре и порази всех своей игрой!

Забрать курс!
ВАМ ПОДАРКИ ОТ ПРОЕКТА
"ГИТАРНАЯ РЕВОЛЮЦИЯ"