Gitaristu.ru
Аккорды Табулатура Начинающим Мастер-класс Софт Видео Форум Блог
Новости Анонсы Гитары Гитаристы Статьи Аватарки Минусовки
Поиск





Популярные подборы




Настройка гитары






Главная > Аккорды > B > Bang Camaro

Аккорды
Bang Camaro
-
Push Push Lady Lightning (табулатура)



Подбор прислал: gitaristu.ru
b=Bend
h=hammer-on
p=pull-off

Ok this  is the song from guitar hero so i expect you have it good luck on the game and 
on I spent ages working out this tab soo enjoy it!

E|---------------------------------------|------------------------------|
B|---------------------------------------|------------------------------|
G|---------------------------------------|------------------------------|
D|-7-x-x-x-x-7-7-x-x-10-x-x-13-x-x-11-12-|--x-x-7-7-x-x-10-x-x-7-x-x-5--|
A|---x-x-x-x-7-7-x-x-10-x-x-13-x-x-11-12-|--x-x-7-7-x-x-10-x-x-7-x-x-5--|
E|---x-x-x-x-5-5-x-x-8--x-x-11-x-x-9--10-|--x-x-5-5-x-x-8--x-x-5-x-x-3--|

E|---------------------------------|--------------------------|
B|---------------------------------|--------------------------|
G|---------------------------------|--------------------------|
D|-x-x-7-7-x-x-10-x-x-13-x-x-11-12-|-x-x-7-7-x-x-7s9-x-7s8-x--|
A|-x-x-7-7-x-x-10-x-x-13-x-x-11-12-|-x-x-7-7-x-x-5s7-x-5s6-x--|
E|-x-x-5-5-x-x-8--x-x-11-x-x-9--10-|-x-x-5-5-x-x-----x-----x--|

E|----------------------------------|------------------------------|
B|----------------------------------|------------------------------|
G|----------------------------------|------------------------------|
D|--x-x-7-7-x-x-10-x-x-13-x-x-11-12-|--x-x-7-7-x-x-10-x-x-7-x-x-5--|
A|--x-x-7-7-x-x-10-x-x-13-x-x-11-12-|--x-x-7-7-x-x-10-x-x-7-x-x-5--|
E|--x-x-5-5-x-x-8--x-x-11-x-x-9--10-|--x-x-5-5-x-x-8--x-x-5-x-x-3--|
                                    Not at all sure about this bit
E|---------------------------------|---------------------------|
B|---------------------------------|---------------------------|
G|---------------------------------|---------------------------|
D|-x-x-7-7-x-x-10-x-x-13-x-x-11-12-|--10h11p10h12p10-10h11p10-7|
A|-x-x-7-7-x-x-10-x-x-13-x-x-11-12-|---------------------------|
E|-x-x-5-5-x-x-8--x-x-11-x-x-9--10-|---------------------------|

E|-----------------------------------|------------------------------|
B|-----------------------------------|------------------------------|
G|-----------------------------------|------------------------------|
D|---x-x-7-7-x-x-10-x-x-13-x-x-11-12-|--x-x-7-7-x-x-10s9-x-8s7-x-5--|
A|---x-x-7-7-x-x-10-x-x-13-x-x-11-12-|--x-x-7-7-x-x-10s9-x-8s7-x-5--|
E|---x-x-5-5-x-x-8--x-x-11-x-x-9--10-|--x-x-5-5-x-x-8-s7-x-6s5-x-3--|

E|---------------------------------|-----------------------|
B|---------------------------------|-----------------------|
G|---------------------------------|-------------5-5-x-3-3-|
D|-x-x-7-7-x-x-10-x-x-13-x-x-11-12-|-x-x-7-7-x-x-5-5-x-3-3-|
A|-x-x-7-7-x-x-10-x-x-13-x-x-11-12-|-x-x-7-7-x-x-3-3-x-1-1-|
E|-x-x-5-5-x-x-8--x-x-11-x-x-9--10-|-x-x-5-5-x-x-----------|

E|----------------------------------|------------------------------|
B|----------------------------------|------------------------------|
G|----------------------------------|------------------------------|
D|--x-x-7-7-x-x-10-x-x-13-x-x-11-12-|--x-x-7-7-x-x-10-x-x-7-x-x-5--|
A|--x-x-7-7-x-x-10-x-x-13-x-x-11-12-|--x-x-7-7-x-x-10-x-x-7-x-x-5--|
E|--x-x-5-5-x-x-8--x-x-11-x-x-9--10-|--x-x-5-5-x-x-8--x-x-5-x-x-3--|


E|----------------------------------|-------------------------------------|
B|----------------------------------|-------------------------------------|
G|----------------------------------|-------------------------------------|
D|--x-x-7-7-x-x-10-x-x-13-x-x-11-12-|--13p12p11p10-12p11p10p9-11p10p9p8h9b|
A|--x-x-7-7-x-x-10-x-x-13-x-x-11-12-|-------------------------------------|
E|--x-x-5-5-x-x-8--x-x-11-x-x-9--10-|-------------------------------------|
Расскажи друзьям!




Войдите, используя Ваш аккаунт:



Забыли пароль?
Зарегистрироваться

Привет, гитарист!

Пройди супер-курс по гитаре и порази всех своей игрой!

Забрать курс!
ВАМ ПОДАРКИ ОТ ПРОЕКТА
"ГИТАРНАЯ РЕВОЛЮЦИЯ"