Gitaristu.ru
Аккорды Табулатура Начинающим Мастер-класс Софт Видео Форум Блог
Новости Анонсы Гитары Гитаристы Статьи Аватарки Минусовки
Поиск





Популярные подборы




Настройка гитары






Главная > Аккорды > B > Barbie Almalbis

Аккорды
Barbie Almalbis
-
Dahilan bass (табулатура)



Подбор прислал: gitaristu.ru
Dahilan by barbie Almabis
tobats
no capo
verse1:

|---------------------------------------|
|---------------------------------------|
|---------------------------------------|
|---444444466666666999999999------------|
chorus:
|------------------------|
|------------------------|2x
|---4---6----8----6------|
|------------------------|

|---------------------------------------|
|---------------------------------------|
|---4----6----8----6---4----6/8---------|
|---------------------------------------|

pre-verse:

|---------------------------------------|
|---------------------------------------|
|----------------------8---6------------|
|----8--6--3--4--8--6-------------------|

verse 2
|------------------------|
|------------------------|3x
|---4-44-44--------------|
|-----------4-44-4-44----|

|-------------------------|
|-------------------------|
|---4-44-44---------------|
|-----------444444444444--|

chorus

|--------------------------------------------|
|--------------------------------------------|3x
|---44444444666666668888888886666666666------|
|--------------------------------------------|

|---------------------------------------|
|---------------------------------------|
|---4444466666888888--------------------|
|--------------------444444444----------|

bridge
|--------------------------------------------|
|--------------------------------------------|
|---8-88-6-66-8-88-6-66-4-44-6-66-8-88-------|
|--------------------------------------------|

instrumental
|--------------------------------------------|
|--------------------------------------------|
|---44444444666666668888888886666666666------|
|--------------------------------------------|
chorus
ending
kung di rin lang ikaw ang dahilan
|--------------------------------------------|
|--------------------------------------------|
|------4---------6---------------------------|
|--------------------------4-----------------|
Расскажи друзьям!




Войдите, используя Ваш аккаунт:



Забыли пароль?
Зарегистрироваться

Привет, гитарист!

Пройди супер-курс по гитаре и порази всех своей игрой!

Забрать курс!
ВАМ ПОДАРКИ ОТ ПРОЕКТА
"ГИТАРНАЯ РЕВОЛЮЦИЯ"