Gitaristu.ru
Аккорды Табулатура Начинающим Мастер-класс Софт Видео Форум Блог
Новости Анонсы Гитары Гитаристы Статьи Аватарки Минусовки
Поиск





Популярные подборы




Настройка гитары






Главная > Аккорды > B > Beatles

Аккорды
Beatles
-
Because bass (табулатура)

Не нашли аккорды к песне? Посмотрите на


Подбор прислал: gitaristu.ru
Because Bass Tab
Intro    0:24 Bass enters in the song
           La basse entre dans la chanson 
G-------------|----------7--------------------------|
D-------------|-------------------6-----------------|
A-------------|---5---------4---------7-----4-------|
E-------------|-------------------------------------|

G--------------------------------|
D---6--------------------4-------|
A--------7----6-----7---------6--|
E--------------------------------|

G------------------------------------------------------|
D----------7---------------------------------7---------|
A-------------7------4-----7----4----------------------|
E--4---5-------------------------------5---------------|

G-------------7--------------------------|
D----------------------6-----------------|
A------5---------4---------7-----4-------|
E----------------------------------------|

G--------------------------------|
D---6--------------------4-------|
A--------7----6-----7---------6--|
E--------------------------------|

G------------------------------------------------------|
D----------7---------------------------------7---------|
A-------------7------4-----7----4----------------------|
E--4---5--------------------------5---5----------------|

G-------------7------|
D--------------------|
A------5-------------|
E--------------------|


The 
Расскажи друзьям!




Войдите, используя Ваш аккаунт:



Забыли пароль?
Зарегистрироваться

Привет, гитарист!

Пройди супер-курс по гитаре и порази всех своей игрой!

Забрать курс!
ВАМ ПОДАРКИ ОТ ПРОЕКТА
"ГИТАРНАЯ РЕВОЛЮЦИЯ"