Gitaristu.ru
Аккорды Табулатура Начинающим Мастер-класс Софт Видео Форум Блог
Новости Анонсы Гитары Гитаристы Статьи Аватарки Минусовки
Поиск





Популярные подборы




Настройка гитары






Главная > Аккорды > B > Beatles

Аккорды
Beatles
-
Real Love (табулатура)

Не нашли аккорды к песне? Посмотрите на


Подбор прислал: gitaristu.ru
----------------------------------------------------------------

   THE BEATLES - REAL LOVE (Lennon) + McCartney/Harrison/Starkey 
                 From THE BEATLES ANTHOLOGY II. Released 19th 
                 March 1996. 

----------------------------------------------------------------

    Tabbed by:PJVillanueva




All my little plans and schemes
Lost like some forgotten dream
Seems that all I really was doing
Was waiting for you

Just like little girls and boys
Playing with their little toys
Seems like all they really were doing
Was waiting for love

Don't need to be alone
No need to be alone

It's real love
It's real, 
Yes it's real love
It's real                                         

From this moment on I know
Exactly where my life will go
Seems that all I really was doing
Was waiting for love

Don't need to be afraid
No need to be afraid

It's real love
It's real, 
Yes it's real love
It's real

Solo                                  
                                     
Thought I'd been in love before,
But in my heart I wanted more
Seems like all I really was doing
Was waiting for you                    

Don't need to be alone
No need to be alone

It's real love
It's real, 
Yes it's real love
It's real ...



    Use a capo on the first fret


                                     
  Dm                              A
e|5------ ------- 5------ 6------|------- 5------ ------- 5------|
B|6-------6---8---6-------6------|5---------------8--------------|
G|7---7-----------7---7-------7--|6---------------6--------------|
D|0---------------0--------------|----7---7---7---7---7----------|
A|-------------------------------|0------------------------------|
E|-------------------------------|-------------------------------|


  Dm                              A
e|------- ------- 5------ 6------|5------ ------- 5------ 5------|
B|6-------6---8---6-------6------|5-------5-------5-------5------|
G|7---7-----------7---7-------7--|6-------6-------6-------6------|
D|0---------------0--------------|----7---7---7-------7---7------|
A|-------------------------------|0---------------0--------------|
E|-------------------------------|-------------------------------|


  00:12
  D                               F#m
e|2---2-- 2------ 2---2-- 2------|2---2-- 2---2-- 2---2-- 2------|
B|3---3---3-------3---3---3------|2---2---2---2---2---2---2------|
G|2---2---2-------2---2---2------|2---2---2---2---2---2---2------|
D|0---0---0-------0---0---0------|4---4---4---4---4---4---4------|
A|-------------------------------|4---4---4---4---4---4---4------|
E|-------------------------------|2---2---2---2---2---2---2------|
  All my  little  plans   and schemes
e|2------ 2------ 2------ 2------|2------ 2------ 2------ 2------|
B|3-------3-------3-------3------|2-------2-------2-------2------|
G|----2-------2-------2-------2--|----2-------2-------2-------2--|
D|0------------------------------|-------------------------------|
A|-------------------------------|4------------------------------|
E|-------------------------------|-------------------------------|



  Bm                              A+5
e|2------ 2---2-- 2---2-- 2------|1---1-- 1---1-- 1---1-- 1---1--|
B|3-------3---3---3---3---3------|2---2---2---2---2---2---2---2--|
G|4-------4---4---4---4---4------|2---2---2---2---2---2---2---2--|
D|4-------4---4---4---4---4------|3---3---3---3---3---3---3---3--|
A|2-------2---2---2---2---2------|0---0---0---0---0---0---0---0--|
E|-------------------------------|-------------------------------|
  Lost    some            dream
      like    forgotten
e|2------ 2------ 2------ 2------|1------ 1------ 1------ 1------|
B|3-------3-------3-------3------|2-------2-------2-------2------|
G|----4-------4-------4-------4--|----2-------2-------2-------2--|
D|-------------------------------|-------------------------------|
A|2------------------------------|0------------------------------|
E|-------------------------------|-------------------------------|



  G                               Em              A
e|3---3-- 3---3-- 3------ 3---3--|0---0-- 0------ 0---0-- 0---0--|
B|0---0---0---0---0-------0---0--|0---0---0-------2---2---2---2--|
G|0---0---0---0---0-------0---0--|0---0---0-------2---2---2---2--|
D|0---0---0---0---0-------0---0--|2---2---2-------2---2---2---2--|
A|2---2---2---2---2-------2---2--|2---2---2-------0---0---0---0--|
E|3---3---3---3---3-------2---2--|0---0---0----------------------|
  Seems   all I   really  was doing                   was     for
      that                                              waiting
e|------- ------- ------- -------|------- ------- ------- -------|
B|3-------3-------3-------3------|0-------0-------2-------2------|
G|0-------0-------0-------0------|0-------0-------2-------2------|
D|----0-------0-------0-------0--|2-------2-------2-------2------|
A|-------------------------------|----------------0---2---3---4--|
E|3-----------------------2------|0---2---3---4------------------|



  D               G               D               G
e|2------ 2---2-- 3------ 3---3--|2---2-- 2---2-- 3---3-- 3------|
B|3-------3---3---0-------0---0--|3---3---3---3---0---0---0------|
G|2-------2---2---0-------0---0--|2---2---2---2---0---0---0------|
D|0-------0---0---0-------0---0--|0---0---0---0---0---0---0------|
A|----------------2-------2---2--|----------------2---2---2------|
E|----------------3-------3---3--|----------------3---3---3------|
  you
e|------- ------- ------- -------|------- ------- ------- -------|
B|3-----------1---0--------------|3-----------1---0-----------0--|
G|2-----------0---0---0---0------|2-----------0---0-----------0--|
D|0-----------2---0-------0------|0-----------2---0-----------0--|
A|-------------------------------|-------------------------------|
E|2---------------3--------------|2---------------3--------------|
  D           C   G               D           C   G

  00:34

e|2------ 2---2-- 2------ 2------|2---2-- 2---2-- 2---2-- 2---2--|
B|3-------3---3---3-------3------|2---2---2---2---2---2---2---2--|
G|2-------2---2---2-------2------|2---2---2---2---2---2---2---2--|
D|0-------0---0---0-------0------|4---4---4---4---4---4---4---4--|
A|-------------------------------|4---4---4---4---4---4---4---4--|
E|-------------------------------|2---2---2---2---2---2---2---2--|
  Just    little  girls   and boys
      like
e|2------ 2------ 2------ 2------|2------ 2------ 2------ 2------|
B|3-------3-------3-------3------|2-------2-------2-------2------|
G|----2-------2-------2-------2--|----2-------2-------2-------2--|
D|0------------------------------|-------------------------------|
A|-------------------------------|4------------------------------|
E|-------------------------------|-------------------------------|

e|------- ------- ------- -------|------- B-R-P-- ------- -------|
B|-------------------------------|----7---10-8-710--~------------|
G|-------------------------------|-------------------------------|
D|-------------------------------|-------------------------------|
A|-------------------------------|-------------------------------|
E|-------------------------------|-------------------------------|

e|------- ------- ------- -------|------- B-R-P-- ------- -------|
B|-------------------------------|----10--14121014--~------------|
G|-------------------------------|-------------------------------|
D|-------------------------------|-------------------------------|
A|-------------------------------|-------------------------------|
E|-------------------------------|-------------------------------|




e|2---2-- 2---2-- ----2-- 2---2--|----1-- ----1-- 1---1-- 1---1--|
B|3---3---3---3-------3---3---3--|----2-------2---2---2---2---2--|
G|4---4---4---4-------4---4---4--|----2-------2---2---2---2---2--|
D|4---4---4---4-------4---4---4--|----3-------3---3---3---3---3--|
A|2---2---2---2-------2---2---2--|----0-------0---0---0---0---0--|
E|-------------------------------|-------------------------------|
  Playing with    little  toys
              their
e|2------ 2------ 2------ 2------|1------ 1------ 1------ 1------|
B|3-------3-------3-------3------|2-------2-------2-------2------|
G|----4-------4-------4-------4--|----2-------2-------2-------2--|
D|-------------------------------|-------------------------------|
A|2------------------------------|0------------------------------|
E|-------------------------------|-------------------------------|

e|------- ------- ------- -------|------- B-R-P-- ------- -------|
B|-------------------------------|----6---10-8-6-6--~------------|
G|-------------------------------|-------------------------------|
D|-------------------------------|-------------------------------|
A|-------------------------------|-------------------------------|
E|-------------------------------|-------------------------------|

e|------- ------- ------- -------|------- B-R-P-- ------- -------|
B|-------------------------------|----10--14121014--~------------|
G|-------------------------------|-------------------------------|
D|-------------------------------|-------------------------------|
A|-------------------------------|-------------------------------|
E|-------------------------------|-------------------------------|




e|3------ 3------ 3---3-- 3------|0---0-- 0---0-- 0---0-- 0---0--|
B|0-------0-------0---0---0------|0---0---0---0---2---2---2---2--|
G|0-------0-------0---0---0------|0---0---0---0---2---2---2---2--|
D|0-------0-------0---0---0------|2---2---2---2---2---2---2---2--|
A|2-------2-------2---2---2------|2---2---2---2---0---0---0---0--|
E|3-------3-------3---3---2------|0---0---0---0------------------|
  Seems   all     really  were                        was     for
      like    they            doing                     waiting
e|------- ------- ------- -------|------- ------- ------- -------|
B|3-------3-------3-------3------|0---------------2--------------|
G|2---0---2---0---2---0---0------|0---------------2--------------|
D|0-------0-------0-------0------|2---------------2--------------|
A|-------------------------------|----------------0---2---3---4--|
E|3-----------------------2---0--|----2---3---4------------------|




e|2---2-- 2------ 3---3-- 3---3--|2---2-- ----2-- 3---3-- 3---3--|
B|3---3---3-------0---0---0---0--|3---3-------3---0---0---0---0--|
G|2---2---2-------0---0---0---0--|2---2-------2---0---0---0---0--|
D|0---0---0-------0---0---0---0--|0---0-------0---0---0---0---0--|
A|----------------2---2---2---2--|2---2-------2---2---2---2---2--|
E|----------------3---3---3---3--|----------------3---3---3---3--|
  love
e|------- ------- ------- -------|------- ------- ------- -------|
B|3-----------1---0-----------0--|3-----------3---0-------0------|
G|2-----------0---0-----------0--|2-----------2---0-------0------|
D|4-----------2---0-----------0--|0-----------0---0-------0------|
A|5------------------------------|-------------------------------|
E|----------------3--------------|2---------------3--------------|


  00:55
  D                               Gm
e|2------ 2---2-- 2---2-- 2---2--|3---3-- 3---3-- 3---3-- 3---3--|
B|3-------3---3---3---3---3---3--|3---3---3---3---3---3---3---3--|
G|2-------2---2---2---2---2---2--|3---3---3---3---3---3---3---3--|
D|0-------0---0---0---0---0---0--|5---5---5---5---5---5---5---5--|
A|-------------------------------|5---5---5---5---5---5---5---5--|
E|-------------------------------|3---3---3---3---3---3---3---3--|
  Don't   to  be          alone
      need
e|2------ 2------ 2------ 2------|3------ 3------ 3------ 3------|
B|3-------3-------3-------3------|3-------3-------3-------3------|
G|----2-------2-------2-------2--|----3-------3-------3-------3--|
D|0---------------0--------------|-------------------------------|
A|-------------------------------|-------------------------------|
E|-------------------------------|3---------------3--------------|

e|------- ------- ------- -------|------- ------- ------- -------|
B|-------------------------------|----3---3---1---1--------------|
G|-------------------------------|--------------------3---3---2--|
D|-------------------------------|-------------------------------|
A|-------------------------------|-------------------------------|
E|-------------------------------|-------------------------------|



  D                               Gm
e|2------ 2------ 2---2-- 2------|3---3-- 3------ 3------ 3---3--|
B|3-------3-------3---3---3------|3---3---3-------3-------3---3--|
G|2-------2-------2---2---2------|3---3---3-------3-------3---3--|
D|0-------0-------0---0---0------|5---5---5-------5-------5---5--|
A|-------------------------------|5---5---5-------5-------5---5--|
E|-------------------------------|3---3---3-------3-------3---3--|
  No  need    be          alone
          to
e|2------ 2------ 2------ 2------|3------ 3------ 3------ 3------|
B|3-------3-------3-------3------|3-------3-------3-------3------|
G|----2-------2-------2-------2--|----3-------3-------3-------3--|
D|0---------------0--------------|-------------------------------|
A|-------------------------------|-------------------------------|
E|-------------------------------|3---------------3--------------|

e|------- ------- ------- -------|------- ------- ------- -------|
B|-------------------------------|-------------------------------|
G|2------------------------------|----3---3---2---2---0---0------|
D|-------------------------------|----------------------------4-4|
A|-------------------------------|-------------------------------|
E|-------------------------------|-------------------------------|


  01:06
  D               Bm              G               A
e|2------ 2------ 2---2-- 2---2--|3---3-- 3---3-- 0---0-- 0------|
B|3-------3-------3---3---3---3--|0---0---0---0---2---2---2------|
G|2-------2-------4---4---4---4--|0---0---0---0---2---2---2------|
D|0-------0-------4---4---4---4--|0---0---0---0---2---2---2------|
A|----------------2---2---2---2--|2---2---2---2---0---0---0------|
E|-------------------------------|3---3---3---3------------------|
             It's real        love           It's real, 
e|2------ 2------ 2------ 2------|------- ------- ------- -------|
B|3-------3-------3-------3------|0-------0-------2-------2------|
G|----2-------2-------4-------4--|0-------0-------2-------2------|
D|0------------------------------|----0-------0-------2-------2--|
A|----------------2--------------|----------------0--------------|
E|-------------------------------|3------------------------------|



  D               Bm              G               A  
e|2---2-- 2------ 2---2-- 2---2--|3---3-- 3------ 0---0-- 0------|
B|3---3---3-------3---3---3---3--|0---0---0-------2---2---2------|
G|2---2---2-------4---4---4---4--|0---0---0-------2---2---2------|
D|0---0---0-------4---4---4---4--|0---0---0-------2---2---2------|
A|----------------2---2---2---2--|2---2---2-------0---0---0------|
E|-------------------------------|3---3---3----------------------|
          Yes it's            love           It's real
                  real
e|2------ 2------ 2------ 2------|------- ------- ------- -------|
B|3-------3-------3-------3------|0-------0-------2-------2------|
G|----2-------2-------4-------4--|0-------0-------2-------2------|
D|0------------------------------|----0-------0-------2-------2--|
A|----------------2--------------|----------------0--------------|
E|-------------------------------|3------------------------------|


  01:17

e|5------ ------- 5------ 6------|------- 5------ ------- 5------|
B|6-------6---8---6-------6------|5---------------8--------------|
G|7---7-----------7---7-------7--|6---------------6--------------|
D|0---------------0--------------|----7---7---7---7---7----------|
A|-------------------------------|0------------------------------|
E|-------------------------------|-------------------------------|

e|------- ------- ------- -------|----5-- ----5-- ----5-- -------|
B|-------------------------------|--------5-------3-------2---5--|
G|-------------------------------|-------------------------------|
D|-------------------------------|-------------------------------|
A|-------------------------------|-------------------------------|
E|-------------------------------|-------------------------------|




e|------- ------- 5------ 6------|5------ ------- 5------ 5------|
B|6-------6---8---6-------6------|5-------5-------5-------5------|
G|7---7-----------7---7-------7--|6-------6-------6-------6------|
D|0---------------0--------------|----7---7---7-------7---7------|
A|-------------------------------|0---------------0--------------|
E|-------------------------------|-------------------------------|

e|------- ------- ------- -------|----5-- ----5-- ----5-- -------|
B|3------------------------------|--------5-------3-------2------|
G|-------------------------------|-------------------------------|
D|-------------------------------|-------------------------------|
A|-------------------------------|-------------------------------|
E|-------------------------------|-------------------------------|


  01:28

e|------- ------- ------- -------|------- ------- ------- -------|
B|-------------------------------|-------------------------------|
G|-------------------------------|-------------------------------|
D|-------------------------------|----4-/-7-/-9-\-4--~-----------|
A|-------------------------------|-------------------------------|
E|-------------------------------|-------------------------------|
  From    moment  on  I       know                           Exactly 
      this


e|------- ------- ------- -------|------- ------- ------- -------|
B|-------------------------------|-------------------------------|
G|-------------------------------|-------------------------------|
D|-------------------------------|----3-/-7-/-9-\-4--~-----------|
A|-------------------------------|-------------------------------|
E|-------------------------------|-------------------------------|
          where   life    go
              my      will



   Seems that all I really was doing
   Was waiting for love


  01:50

e|------- ------- ------- -------|------- B-R-P-H P------ -----B-|
B|-------------------------------|------131513111311------13--1315
G|-------------------------------|-------------------------------|
D|-------------------------------|-------------------------------|
A|-------------------------------|-------------------------------|
E|-------------------------------|-------------------------------|
  Don't   to  be          afraid
      need


e|------- ------- ------- -------|------- 1516151315----- 17-----|
B|-------------------------------|----------B-R-P-H------B-------|
G|-------------------------------|-------------------------------|
D|-------------------------------|-------------------------------|
A|-------------------------------|-------------------------------|
E|-------------------------------|-------------------------------|
  No  need    be          afraid
          to


  It's real love
  It's real, 
  Yes it's real love
  It's real


   SOLO
  02:12
  Em                              B
e|0---0-- 0------ 0---0-- 0------|2---2-- 2---2-- 2------ 2---2--|
B|0---0---0-------0---0---0------|4---4---4---4---4-------4---4--|
G|0---0---0-------0---0---0------|4---4---4---4---4-------4---4--|
D|2---2---2-------2---2---2------|4---4---4---4---4-------4---4--|
A|2---2---2-------2---2---2------|2---2---2---2---2-------2---2--|
E|0---0---0-------0---0---0------|-------------------------------|

e|------- 0------ ------- 0------|------- ------- ------- -------|
B|--------0---------------0------|--------0---------------0------|
G|----0-------0-------0-------0--|--------2---------------2------|
D|-------------------------------|----1-------1-------1-------1--|
A|------------------------0------|2-----------2---2--------------|
E|0-------2-------3--------------|-------------------------------|

e|------- --B--12 --R---- -----B-|------- -B---B- ------- ---12--|
B|----8---1012----1210--8-8--1012|--10-1212131213R12--------12-12|
G/9------------------------------|11-----------------------------|
D|-------------------------------|-------------------------------|
A|-------------------------------|-------------------------------|
E|-------------------------------|-------------------------------|



  Em                              A7sus4
e|0---0-- 0---0-- 0---0-- 0------|0---0-- 0---0-- 0---0-- 0---0--|
B|0---0---0---0---0---0---0------|3---3---3---3---3---3---3---3--|
G|0---0---0---0---0---0---0------|0---0---0---0---0---0---0---0--|
D|2---2---2---2---2---2---2------|2---2---2---2---2---2---2---2--|
A|2---2---2---2---2---2---2------|0---0---0---0---0---0---0---0--|
E|0---0---0---0---0---0---0------|-------------------------------|

e|------- 0------ ------- 0------|------- ------- ------- -------|
B|--------0---------------0------|--------3---------------3------|
G|----0-------0-------0-------0--|--------0---------------0------|
D|-------------------------------|----2-------2-------2-------2--|
A|-------------------------------|0---------------0--------------|
E|0---------------0--------------|-------------------------------|

e|--B-12-15171512 --B-12- 12-----|--17---17191719 17--~-- -------|
B|1517-----B-R-P--1517-----------|15---15--B-R-B-R---------------|
G|-------------------------------|-------------------------------|
D|-------------------------------|-------------------------------|
A|-------------------------------|-------------------------------|
E|-------------------------------|-------------------------------|


                  (.      X
  A7
e|0---0-- 0---0-- 0------ -------|
B|2---2---2---2---2--------------|
G|0---0---0---0---0--------------|
D|2---2---2---2---2--------------|
A|0---0---0---0---0--------------|
E|-------------------------------|

e|------- ------- ------- -------|
B|--------2----------------------|
G|--------0----------------------|
D|----2-------2------------------|
A|0---------------0--------------|
E|-------------------------------|

e|--17---17191719 17--~-- -------|
B|14---14--B-R-B-R---------------|
G|-------------------------------|
D|-------------------------------|
A|-------------------------------|
E|-------------------------------|


  02:26                        
                                
e|------- ------- ------- -------|------- ------- ------- -------|
B|-------------------------------|-------------------------------|
G|-------------------------------|-------------------------------|
D|-------------------------------|----4-/-7-/-9-\-4--------------|
A|-------------------------------|----4-/-7-/-9-\-4--------------|
E|-------------------------------|-------------------------------|
  Thought been    love    before,                             but 
      I'd     in

e|------- ------- ------- -------|------- ------- ------- -------|
B|-------------------------------|-------------------------------|
G|-------------------------------|-------------------------------|
D|-------------------------------|----3-/-7-/-9-/-3--------------|
A|-------------------------------|----0-/-4-/-8-/-0--------------|
E|-------------------------------|-------------------------------|
  In  my  heart   wanted  more
              I


  Seems like all I really was doing
  Was waiting for you  
      

  02:47

e|------- 2------ ------- 2------|------- 3------ ------- 3------|
B|--------3---------------3------|--------3---------------3------|
G|--------2---------------2------|--------3---------------3------|
D|--------0---------------0------|--------5---------------5------|
A|-------------------------------|--------5---------------5------|
E|-------------------------------|--------3---------------3------|
  Don't   to  be          alone
      need
e|------- 2------ ------- 2------|------- 3------ ------- 3------|
B|--------3---------------3------|--------3---------------3------|
G|----2-------2-------2-------2--|----3-------3-------3-------3--|
D|0---------------0--------------|-------------------------------|
A|-------------------------------|1-----------1---1--------------|
E|-------------------------------|-------------------------------|

e|------- ------- ------- -------|------- ------- ------- -------|
B|-------------------------------|-------------------------------|
G|-------------------------------|--------3--------B-R-----------|
D|-------------------------------|----5-------5---3-4-3-1-3-/-5--|
A|-------------------------------|-------------------------------|
E|-------------------------------|-------------------------------|




e|------- 2------ ------- 2------|------- 3------ ------- 3------|
B|--------3---------------3------|--------3---------------3------|
G|--------2---------------2------|--------3---------------3------|
D|--------0---------------0------|--------5---------------5------|
A|-------------------------------|--------5---------------5------|
E|-------------------------------|--------3---------------3------|
  No need to  be          alone
e|------- 2------ ------- 2------|------- 3------ ------- 3------|
B|--------3---------------3------|--------3---------------3------|
G|----2-------2-------2-------2--|----3-------3-------3-------3--|
D|-------------------------------|-------------------------------|
A|0---------------0--------------|-------------------------------|
E|-------------------------------|3-----------3---3--------------|

e|------- ------- ------- -------|------- ----3-- ------- ----B--R
B|-------------------------------|---------B------B-R-P-H----7-8-|
G|-------------------------------|------3-5-7----5-6-5-3-5-------|
D|-------------------------------|----5--------------------------|
A|-------------------------------|-------------------------------|
E|-------------------------------|-------------------------------|


  02:58

e|2---2-- 2------ 2---2-- 2---2--|3---3-- 3---3-- 0---0-- 0---0--|
B|3---3---3-------3---3---3---3--|0---0---0---0---2---2---2---2--|
G|2---2---2-------4---4---4---4--|0---0---0---0---2---2---2---2--|
D|0---0---0-------4---4---4---4--|0---0---0---0---2---2---2---2--|
A|----------------2---2---2---2--|2---2---2---2---0---0---0---0--|
E|-------------------------------|3---3---3---3------------------|    
             It's real        love           It's real, 
e|------- 2------ 2------ 2------|------- ----5-- ----5-- -------|
B|--------3-------3-------3------|--------3---------------5------|
G|----2-------2-------4-------4--|----0-------------------2------|
D|0------------------------------|-------------------------------|
A|----------------2--------------|----------------0--------------|
E|-------------------------------|3------------------------------|

e|------- 2------ ------- 2------|------- 3------ ------- 5------|
B|--------3---------------3------|--------3---------------5------|
G|--------2---------------4------|--------4---------------6------|
D|--------0---------------4------|--------5---------------7------|
A|------------------------2------|--------5---------------7------|
E|-------------------------------|--------3---------------5------|

e|------- ------- ------- -------|------- ------- ------- -------|
B|7--~---------------------------|-------------------------------|
G|-------------------------------|-------------------------------|
D|------------7------------------|-------------------------------|
A|-------------------------------|-------------------------------|
E|-------------------------------|-------------------------------|




e|2---2-- 2---2-- 2---2-- 2---2--|3---3-- 3---3-- 0---0-- 0---0--|
B|3---3---3---3---3---3---3---3--|0---0---0---0---2---2---2---2--|
G|2---2---2---2---4---4---4---4--|0---0---0---0---2---2---2---2--|
D|0---0---0---0---4---4---4---4--|0---0---0---0---2---2---2---2--|
A|----------------2---2---2---2--|2---2---2---2---0---0---0---0--|
E|-------------------------------|3---3---3---3------------------|
          Yes it's            love           It's real
                  real
e|------- 2------ 2------ 2------|------- ----5-- ----5-- -------|
B|--------3-------3-------3------|--------3---------------5------|
G|----2-------2-------4-------4--|----0-------------------2------|
D|0------------------------------|-------------------------------|
A|----------------2--------------|----------------0--------------|
E|-------------------------------|3------------------------------|

e|------- 2------ ------- 2------|------- 3------ ------- 5------|
B|--------3---------------3------|--------3---------------5------|
G|--------2---------------4------|--------4---------------6------|
D|--------0---------------4------|--------5---------------7------|
A|------------------------2------|--------5---------------7------|
E|-------------------------------|--------3---------------5------| 
                                               (bottleneck slides)
e|------- ------- ------- -------|------- ------- ------- -----/-\
B|-------------------------------|---------------------------1012|
G|-------------------------------|-------------------------------|
D|-------------------------------|-------------------------------|
A|-------------------------------|-------------------------------|
E|-------------------------------|-------------------------------|      
                                                                          
                                                                          
  03:09                                                                           
                                                                                   
e|------- ------- ------- -------|------- ------- ------- -----/-\                    
B|10--~--------------------------|---------------------------1012|
G|-------------------------------|-------------------------------|
D|-------------------------------|-------------------------------|
A|-------------------------------|-------------------------------|
E|-------------------------------|-------------------------------|
             It's real       love            It's real, 


e|------- ------- ------- -------|------- ------- ------- -----/-\
B|10-----------------------------|---------------------------1012|
G|----7----~---------------------|-------------------------------|
D|-------------------------------|-------------------------------|
A|-------------------------------|-------------------------------|
E|-------------------------------|-------------------------------|
         Yes it's real        love           It's real                  
  03:20
                                                      
e|------- ------- ------- -------|------- ------- ------- -----/-\                    
B|10--~--------------------------|---------------------------1012|
G|-------------------------------|-------------------------------|
D|-------------------------------|-------------------------------|
A|-------------------------------|-------------------------------|
E|-------------------------------|-------------------------------|
             
  

e|------- ------- ------- -------|------- ------- ------- -----/-\
B|10-----/15--~------------------|---------------------------1012|
G|-------------------------------|-------------------------------|
D|-------------------------------|-------------------------------|
A|-------------------------------|-------------------------------|
E|-------------------------------|-------------------------------|
         ......................Fading.....................     
  03:31      

e|------- ------- ------- -------|------- ------- -------15171517\                   
B|10----\------------------------|-------------------------/-\-/-|
G|--------7----------------------|-------------------------------|
D|-------------------------------|-------------------------------|
A|-------------------------------|-------------------------------|
E|-------------------------------|-------------------------------|
         .................................................    
  

e|------- ------- ------- -------|------- ------- 17-----/19-\17-|
B|----15--~----------------------|------------15-----------------|
G|-------------------------------|-------------------------------|
D|-------------------------------|-------------------------------|
A|-------------------------------|-------------------------------|
E|-------------------------------|-------------------------------|
         .................................................   
           

e|17\---- ------- ------- -------|------- ------- ------- -------|                    
B|----15--~----------------------|-----------/15-\10--~------\8--\
G|-------------------------------|-------------------------------|
D|-------------------------------|-------------------------------|
A|-------------------------------|-------------------------------|
E|-------------------------------|-------------------------------|
         .................................................         
  03:48

e|------- ------- ------- -------|------- ------- ------- -------|
B|7---~--------------------------|-------------------------------|
G|-------------------------------|-------------------------------|
D|-------------------------------|-------------------------------|
A|-------------------------------|-------------------------------|
E|-------------------------------|-------------------------------|
         .................     
 



        B  Bend
        R  Release
        /  Slide up
        \  Slide down
        H  Hammer-on
        P  Pull-off
        ~  Vibrato
        +  Harmonic
        x  Mute note
        .  Play note like a dot in standard notation
        ^  Ties two notes together
        (. Pause



Расскажи друзьям!




Войдите, используя Ваш аккаунт:



Забыли пароль?
Зарегистрироваться

Привет, гитарист!

Пройди супер-курс по гитаре и порази всех своей игрой!

Забрать курс!
ВАМ ПОДАРКИ ОТ ПРОЕКТА
"ГИТАРНАЯ РЕВОЛЮЦИЯ"