Gitaristu.ru
Аккорды Табулатура Начинающим Мастер-класс Софт Видео Форум Блог
Новости Анонсы Гитары Гитаристы Статьи Аватарки Минусовки
Поиск





Популярные подборы




Настройка гитары






Главная > Аккорды > B > Beatles

Аккорды
Beatles
-
Real Love bass (табулатура)

Не нашли аккорды к песне? Посмотрите на


Подбор прислал: gitaristu.ru
REAL LOVE

By John Lennon (+McCartney/Harrison/Starkey)
Anthology II

INTRO

G|---------------------------------|---------------------------------|
D|---------------------------------|---------------------------------|
A|---------------------------------|---------------------------------|
E|---------------------------------|---------------------------------|

G|---------------------------------|---------------------------------|
D|---------------------------------|---------------------------------|
A|---------------------------------|---------------------------------|
E|---------------------------------|---------------------------------|

VERSE

G|---------------------------------|---------------------------------|
D|---------------------------------|---------------------------------|
A|---------------------------------|---------------------------------|
E|---------------------------------|---------------------------------|

G|---------------------------------|---------------------------------|
D|---------------------------------|---------------------------------|
A|---------------------------------|---------------------------------|
E|---------------------------------|---------------------------------|

G|---------------------------------|---------------------------------|
D|---------------------------------|---------------------------------|
A|---------------------------------|---------------------------------|
E|---------------------------------|---------------------------------|

G|---------------------------------|---------------------------------|
D|---------------------------------|---------------------------------|
A|---------------------------------|---------------------------------|
E|---------------------------------|---------------------------------|

VERSE

G|---------------------------------|---------------------------------|
D|---------------------------------|---------------------------------|
A|-6-------------------------------|---------------------------------|
E|---------------------------------|-3-------------------------------|

G|---------------------------------|---------------------------------|
D|---------------------------------|---------------------------------|
A|---------------------------------|---------------------------------|
E|-4-------------------------------|-2-------------------------------|

G|---------------------------------|---------------------------------|
D|---------------------------------|---------------------------------|
A|---------------------------------|-----------------1---------------|
E|-4-------------------------------|-1-------------------------------|

G|---------------------------------|---------------------------------|
D|---------------------------------|---------------------------------|
A|-6-----------5---3---------------|-6-----------5---3---------------|
E|---------------------------------|---------------------------------|

BRIDGE

G|---------------------------------|---------------------------------|
D|---------------------------------|---------------------------------|
A|-6---------------6---------------|---------------------------------|
E|---------------------------------|-4---------------4---------------|

G|---------------------------------|---------------------------------|
D|---------------------------------|---------------------------------|
A|-6---------------6---------------|---------------------------------|
E|---------------------------------|-4---------------4---------------|

CHORUS

G|---------------------------------|---------------------------------|
D|---------------------------------|---------------------------------|
A|-6-----------5---3---------------|-----------------------------5---|
E|---------------------------------|-4---------------6---------------|

G|---------------------------------|---------------------------------|
D|---------------------------------|---------------------------------|
A|-6-----------5---3---------------|---------------------------------|
E|---------------------------------|-4---------------6---------------|

INTERLUDE

G|---------------------------------|---------------------------------|
D|---------------------------------|---------------------------------|
A|---------------------------------|---------------------------------|
E|---------------------------------|---------------------------------|

G|---------------------------------|---------------------------------|
D|---------------------------------|---------------------------------|
A|---------------------------------|---------------------------------|
E|---------------------------------|---------------------------------|

VERSE

G|---------------------------------|---------------------------------|
D|---------------------------------|---------------------------------|
A|-6-------------------------------|---------------------------------|
E|---------------------------------|-3-------------------------------|

G|---------------------------------|---------------------------------|
D|---------------------------------|---------------------------------|
A|---------------------------------|---------------------------------|
E|-4-------------------------------|-2-------------------------------|

G|---------------------------------|---------------------------------|
D|---------------------------------|---------------------------------|
A|---------------------------------|-----------------1---------------|
E|-4-------------------------------|-1-------------------------------|

G|---------------------------------|---------------------------------|
D|---------------------------------|---------------------------------|
A|-6-----------5---3---------------|-6-----------5---3---------------|
E|---------------------------------|---------------------------------|

BRIDGE

G|---------------------------------|---------------------------------|
D|---------------------------------|---------------------------------|
A|-6---------------6---------------|---------------------------------|
E|---------------------------------|-4---------------4---------------|

G|---------------------------------|---------------------------------|
D|---------------------------------|---------------------------------|
A|-6---------------6---------------|---------------------------------|
E|---------------------------------|-4---------------4---------------|

CHORUS

G|---------------------------------|---------------------------------|
D|---------------------------------|---------------------------------|
A|-6-----------5---3---------------|-----------------------------5---|
E|---------------------------------|-4---------------6---------------|

G|---------------------------------|---------------------------------|
D|---------------------------------|---------------------------------|
A|-6-----------5---3---------------|---------------------------------|
E|---------------------------------|-4---------------6---------------|

GUITAR SOLO

G|---------------------------------|---------------------------------|
D|---------------------------------|---------------------------------|
A|-------------------------1-------|-3---------------3---------------|
E|-1-------3-------4---------------|---------------------------------|

G|---------------------------------|---------------------------------|
D|-----------------3---------------|---------------------------------|
A|---------------------------------|-1---------------1---------------|
E|-1-------------------------------|---------------------------------|

G|---------------------------------|
D|---------------------------------|
A|-1---------------1---------------|
E|---------------------------------|

VERSE

G|---------------------------------|---------------------------------|
D|---------------------------------|---------------------------------|
A|-6-------------------------------|---------------------------------|
E|---------------------------------|-3-------------------------------|

G|---------------------------------|---------------------------------|
D|---------------------------------|---------------------------------|
A|---------------------------------|---------------------------------|
E|-4-------------------------------|-2-------------------------------|

G|---------------------------------|---------------------------------|
D|---------------------------------|---------------------------------|
A|---------------------------------|-----------------1---------------|
E|-4-------------------------------|-1-------------------------------|

G|---------------------------------|---------------------------------|
D|---------------------------------|---------------------------------|
A|-6-----------5---3---------------|-6-----------5---3---------------|
E|---------------------------------|---------------------------------|

BRIDGE

G|---------------------------------|---------------------------------|
D|---------------------------------|---------------------------------|
A|-6---------------6---------------|---------------------------------|
E|---------------------------------|-4---------------4---------------|

G|---------------------------------|---------------------------------|
D|---------------------------------|---------------------------------|
A|-6---------------6---------------|---------------------------------|
E|---------------------------------|-4---------------4---------------|

CHORUS

G||---------------------------------|---------------------------------|
D||---------------------------------|---------------------------------|
A||-6-----------5---3---------------|-----------------------------5---|
E||---------------------------------|-4---------------6---------------|

G|---------------------------------|---------------------------------||
D|---------------------------------|---------------------------------||
A|-6-----------5---3---------------|---------------------------------||
E|---------------------------------|-4---------------6---------------||
                                                  REPEAT AND FADE OUT

Please e-mail me for any corrections
Расскажи друзьям!




Войдите, используя Ваш аккаунт:



Забыли пароль?
Зарегистрироваться

Привет, гитарист!

Пройди супер-курс по гитаре и порази всех своей игрой!

Забрать курс!
ВАМ ПОДАРКИ ОТ ПРОЕКТА
"ГИТАРНАЯ РЕВОЛЮЦИЯ"