Gitaristu.ru
Аккорды Табулатура Начинающим Мастер-класс Софт Видео Форум Блог
Новости Анонсы Гитары Гитаристы Статьи Аватарки Минусовки
Поиск





Популярные подборы




Настройка гитары






Главная > Аккорды > B > Beatles

Аккорды
Beatles
-
Rocky racoon (табулатура)

Не нашли аккорды к песне? Посмотрите на


Подбор прислал: gitaristu.ru



From: IO91549@MAINE.maine.edu


HERE'S ROCKY RACOON BY THE BEATLES (TAB). I CAN'T REMEMBER THE LYRICS,
(MUCH LESS REMEMBER THE WORDS AS I'M PLAYING). IF YOU NEED THE LYRICS,
JUST LISTEN TO THE WHITE ALBUM.


THE FOLLOWING PROGRESSION IS REPEATED THROUGHOUT THE SONG:

	

----3-3-3----3-3-3----3-3-3---2-2-2---1-1-1---1-1-1--
----1-1-1----1-1-1----1-1-1---1-1-1---0-0-0---0-0-0--
----2-2-2----2-2-2----2-2-2---2-2-2---0-0-0---0-0-0--
-------------------0--------0------------------------
--0--------0-----------------------------------------
-------------------------------------3-------3-------



-----0-0-0---0-0-0----
-----1-1-1---1-1-1----
-----0-0-0---0-0-0----        REPEAT
----------------------
--3--------2----------
----------------------


I GET BORED AFTER PLAYING ROCKY RACOON LIKE THIS, SO I OFTEN FINGER PICK
IT AS SHOWN BELOW:

----3-----3---3--3-----3------
-----1-----1---1--1-----1-----
------2-----2------2-----2----
-----------------0-----0------   etc.
----0-----0----0--------------
------------------------------

THIS SONG IS SO SIMPLE THAT ANYTHING TO KEEP FROM GETTING BORED OUT
OF YOUR MIND IS A DEFINITE PLUS 

TRANSCRIBED BY MYSELF:
BARRY KNOWLES      IO91549@MAINE.MAINE.EDU

ENJOY 


From: jude@pipeline.com (Bob Jude Ferrante)
Subject: REQ: Beatles-RRaccoon-Lyrics

regards, 
bob jude ferrante 
jude@pipeline.com 

Date: Thu, 27 Jul 1995 14:14:51 -0400
From: mbeauche@m3isystems.qc.ca (Martin Beauchesne)
Subject: Rocky Raccoon, Beatles

 Rocky Raccoon, Beatles


  From the White Album,
 Rocky Raccoon


     A7    A7   D7   D7  G7  C   Em
e:---3------3------2-----2----1-----0-----0--------------------------------|
B:---1------1-----1-----1-----0-----1-----0--------------------------------|
G:---0------0-----2-----2-----0-----0-----0--------------------------------|
D:---2------2-------------------0-----2-----2-------------------------------|
A:--------------------------------2-----3-----2-------------------------------|
E:--------------------------------3------------0-------------------------------|

REPEAT FOR THE WHOLE SONG



You will have to listen to the song to get it wright, but they always hit
the root note
on the beginning of each chord...    So enjoy 



This TAB transcription was created using TAB MASTER version 1.0
 the author: Ofir Zwebner, e-mail: ofirz1@ccsg.tau.ac.il
                    snail-mail: Ehoud 10, Tel Aviv, 69936, Israel
*********************************************************************
                         Martin Beauchesne
                mbeauche@m3isystems.qc.ca
 *********************************************************************


Расскажи друзьям!




Войдите, используя Ваш аккаунт:



Забыли пароль?
Зарегистрироваться

Привет, гитарист!

Пройди супер-курс по гитаре и порази всех своей игрой!

Забрать курс!
ВАМ ПОДАРКИ ОТ ПРОЕКТА
"ГИТАРНАЯ РЕВОЛЮЦИЯ"