Gitaristu.ru
Аккорды Табулатура Начинающим Мастер-класс Софт Видео Форум Блог
Новости Анонсы Гитары Гитаристы Статьи Аватарки Минусовки
Поиск





Популярные подборы




Настройка гитары






Главная > Аккорды > B > Beatles

Аккорды
Beatles
-
Roll over beethoven (табулатура)

Не нашли аккорды к песне? Посмотрите на


Подбор прислал: gitaristu.ru


Roll over beethoven (the beatles)

Intro:


1 ----------------11/12-12-12-12---11/12-12-12-12
2 ---------12-14--11/12-12-12-12---11/12-12-12-12
3 ---12h13---------------------------------------
4 -----------------------------------------------
5 -----------------------------------------------
6 -----------------------------------------------

1 -----15h12---------------------
2 -------------15h12-------------
3 --------------------14h12------
4 -------------------------------
5 -------------------------------
6 -------------------------------

1 ---------------------
2 ---------------------
3 ---------------------
4 ---13/14-14---13/14--
5 ---13/14-14---13/14--
6 ---------------------

1 --------------------------------
2 --------------------------------
3 --------------------------------
4 --14-14-14---13/14--14-13/14----
5 --14-14-14---13/14--14-13/14----
6 --------------------------------
Luego capas q mande las estrofas pero es la tipica base de rock'n roll.

EL GHIRIII    carajo 


Расскажи друзьям!




Войдите, используя Ваш аккаунт:



Забыли пароль?
Зарегистрироваться

Привет, гитарист!

Пройди супер-курс по гитаре и порази всех своей игрой!

Забрать курс!
ВАМ ПОДАРКИ ОТ ПРОЕКТА
"ГИТАРНАЯ РЕВОЛЮЦИЯ"