Gitaristu.ru
Аккорды Табулатура Начинающим Мастер-класс Софт Видео Форум Блог
Новости Анонсы Гитары Гитаристы Статьи Аватарки Минусовки
Поиск





Популярные подборы




Настройка гитары






Главная > Аккорды > B > Beatles

Аккорды
Beatles
-
Roll Over Beethoven bass (табулатура)

Не нашли аккорды к песне? Посмотрите на


Подбор прислал: gitaristu.ru
Roll Over Beethoven
The Beatles
Written by Chuck Berry; released on "With The Beatles"

A "rocking little record" :-)

Intro:
G|------- ------- ------- -------|------- ------- ------- -------|
D|-------------------------------|-------------------------------|
A|-------------------------------|-------------------------------|
E|-------------------------------|-------------------------------|



G|------- ------- ------- -------|------- ------- ------- -------|
D|-------------------------------|-------------------------------|
A|-------------------------------|-------------------------------|
E|-------------------------------|-------------------------------|



G|------- ------- ------- -------|------- ------- ------- -------|
D|-------------------------------|-------------------------------|
A|-------------------------------|-------------------------------|
E|-------------------------------|-------------------------------|



G|------- ------- ------- -------|------- ------- ------- -------|
D|5---5--------------------------|5---5--------------------------|
A|----------------5---5---7---7--|--------7---7---5--------------|
E|--------6---7------------------|--------------------7---8---9--|



G|------- ------- ------- -------|------- ------- ------- -------|
D|--------4---4---7---7---4---7--|--------4---4---7---7---4---7--|
A|5---5--------------------------|5---5--------------------------|
E|-------------------------------|-------------------------------|



G|------- ------- ------- -------|------- ------- ------- -------|
D|5---5--------------------------|-------------------------------|
A|----------------5---5-------5--|--------4---4---7---7---4---7--|
E|--------6---7-----------7------|5---5--------------------------|



G|------- ------- ------- -------|------- ------- ------- -------|
D|--------4---4---7---7---4---7--|-------------------------------|
A|5---5--------------------------|-------------------------------|
E|-------------------------------|5-------5-------5-------5------|
                                                    Well, gonna

Verse:
G|------- ------- ------- -------|------- ------- ------- -------|
D|--------4---4---7---7---4---7--|5-------5----------------------|
A|5---5--------------------------|----------------5--------------|
E|-------------------------------|------------7-------7---8---9--|
  write a little  letter, gonna   mail it to  my  lo- cal D.  J.,


G|------- ------- ------- -------|------- ------- ------- -------|
D|------------4---7---7---4---7--|------------4---7-----------4--|
A|5------------------------------|5-------------------5---7------|
E|-------------------------------|-------------------------------|
                                                         It's a


G|------- ------- ------- -------|------- ------- ------- -------|
D|5------------------------------|5-------5----------------------|
A|----------------5---5-------5--|----------------5---5-------5--|
E|------------7-----------7------|------------7-----------7------|
  rocking little  record  I   want    my      joc -   key to  play


G|------- ------- ------- -------|------- ------- ------- -------|
D|--------4---4---7---7---4---7--|--------4---4---7---7---4---7--|
A|5------------------------------|5------------------------------|
E|-------------------------------|-------------------------------|
                                                         Roll o-


G|------- ------- ------- -------|------- ------- ------- -------|
D|5------------------------------|-------------------------------|
A|----------------5-----------5--|------------4---7-------4---7--|
E|------------7-----------7------|5------------------------------|
     ver, Beetho  -  ven, got to  hear it a   gain        to- day


G|------- ------- ------- -------|------- ------- ------- -------|
D|--------4---4---7---7---4---7--|7------------------------------|
A|5------------------------------|----------------------------4--|
E|-------------------------------|------------5---5-------7------|
                                                      You know my

Verse:
G|------- ------- ------- -------|------- ------- ------- -------|
D|--------4-------7-------4---7--|5------------------------------|
A|5------------------------------|----------------5-----------4--|
E|-------------------------------|------------7-----------7------|
  temperature's ri - sing and the juke -  box     blows   a   fuse,


G|------- ------- ------- -------|------- ------- ------- -------|
D|------------4---7-------4---7--|------------4---7---7---4---7--|
A|5------------------------------|5-------5----------------------|
E|-------------------------------|-------------------------------|
                                                              My


G|------- ------- ------- -------|------- ------- ------- -------|
D|5------------------------------|5------------------------------|
A|----------------5-----------5--|----------------5-----------4--|
E|------------7-----------7------|------------7-----------7------|
  heart   beating rhythm  and my  soul    keeps a-singing the blues


G|------- ------- ------- -------|------- ------- ------- -------|
D|------------4---7-------4---7--|------------4---7-------4---7--|
A|5------------------------------|5------------------------------|
E|-------------------------------|-------------------------------|
                                                         Roll o-


G|------- ------- ------- -------|------- ------- ------- -------|
D|5------------------------------|-------------------------------|
A|----------------5-----------5--|------------4---7-------4---7--|
E|------------7-----------7------|5------------------------------|
     ver, Beetho  -   ven,    and tell    Tchaikov -  sky the news


G|------- ------- ------- -------|------- ------- ------- -------|
D|------------4---7-------4---7--|7------------------------------|
A|5------------------------------|----------------4--------------|
E|-------------------------------|------------5-----------5------|
                                                     I've got a

Verse:
G|------- ------- ------- -------|------- ------- ------- -------|
D|------------4---7-------4---7--|5------------------------------|
A|5------------------------------|----------------5-----------4--|
E|-------------------------------|------------7-----------7------|
  rocking pneumo  -   nia     I   need a  shot of rhythm  and blues,


G|------- ------- ------- -------|------- ------- ------- -------|
D|------------4---7-------4---7--|------------4---7-------4---7--|
A|5------------------------------|5------------------------------|
E|-------------------------------|-------------------------------|
                              ooh,                    I think I


G|------- ------- ------- -------|------- ------- ------- -------|
D|5------------------------------|5------------------------------|
A|----------------5-----------5--|----------------5-----------4--|
E|------------7-----------7------|------------7-----------7------|
  caught  arth    ri- tis sitting down    by  the rhythm  reviews
      an

G|------- ------- ------- -------|------- ------- ------- -------|
D|------------4---7-------4---7--|------------4---7-------4---7--|
A|5------------------------------|5------------------------------|
E|-------------------------------|-------------------------------|
                                                         Roll o-


G|------- ------- ------- -------|------- ------- ------- -------|
D|5------------------------------|-------------------------------|
A|----------------5-----------5--|------------4---7-------4---7--|
E|------------7-----------7------|5-------5----------------------|
     ver, Beetho  -   ven,    they're     in  two     by      two
                                  rocking

G|------- ------- ------- -------|------- ------- ------- -------|
D|------------4---7-------4---7--|7-----------7---7--------------|
A|5------------------------------|----------------------------4--|
E|-------------------------------|------------------------7------|
                                                    Well, if  you

Bridge:
G|------- ------- ------- -------|------- ------- ------- -------|
D|-------------------------------|--------------------7---5---4--|
A|5---5---5---5---5---5---5---5--|5---5---5---5---5--------------|
E|-------------------------------|-------------------------------|
  feel    it      like    it,         go  get your lover, and a-


G|------- ------- ------- -------|------- ------- ------- -------|
D|-------------------------------|--------------------7---5---4--|
A|5---5---5---5---5---5---5---5--|5---5---5---5---5--------------|
E|-------------------------------|-------------------------------|
  reel    it,     rock    it,             roll it over,   And


G|------- ------- ------- -------|------- ------- ------- -------|
D|5---5---5---5---5---5---5---5--|5---5---5---5---5---7---5---4--|
A|-------------------------------|-------------------------------|
E|-------------------------------|-------------------------------|
  move    on      up      just        a   trifle further, and a-


G|------- ------- ------- -------|------- ------- ------- -------|
D|-------------------------------|----------------------------7--|
A|5---5---5---5---5---5---5---5--|5---5---5---5---5---5---5------|
E|-------------------------------|-------------------------------|
  reel    it,     rock    it,             roll it over,  Roll o-


G|------- ------- ------- -------|------- ------- ------- -------|
D|5-------5---5---5-------5---5--|7-------7---7---7-------7---7--|
A|-------------------------------|-------------------------------|
E|-------------------------------|-------------------------------|
     ver, Beetho  -   ven,        rocking in  two     by      two,


G|7------ 7---7-- 7------ 7---7--|------- ------- ------- -------|
D|-------------------------------|7---7---7---7---7---7---7---7--|
A|-------------------------------|-------------------------------|
E|-------------------------------|-------------------------------|
                              ooh

Break (solo):
G|------- ------- ------- -------|------- ------- ------- -------|
D|------------4---7---7---4---7--|5------------------------------|
A|5-------5----------------------|----------------5-----------4--|
E|-------------------------------|------------7-----------7------|



G|------- ------- ------- -------|------- ------- ------- -------|
D|------------4---7---7---4---7--|------------4---7---7---4---7--|
A|5-------5----------------------|5-------5----------------------|
E|-------------------------------|-------------------------------|



G|------- ------- ------- -------|------- ------- ------- -------|
D|5-------5----------------------|5-------5----------------------|
A|----------------5---5-------5--|----------------5--------------|
E|------------7-----------7------|------------7-------7---8---9--|



G|------- ------- ------- -------|------- ------- ------- -------|
D|------------4---7---7---4---7--|------------4---7---7---4---7--|
A|5-------5----------------------|5-------5----------------------|
E|-------------------------------|-------------------------------|



G|------- ------- ------- -------|------- ------- ------- -------|
D|5------------------------------|--------7----------------------|
A|----------------5-----------5--|------------4---7---7---4---7--|
E|------------7-----------7------|5------------------------------|



G|------- ------- ------- -------|------- ------- ------- -------|
D|------------4---7---7---4---7--|------------------------4---7--|
A|5---5--------------------------|--------4---4---7---7----------|
E|-------------------------------|5---5--------------------------|
                                                              Ear-

Verse:
G|------- ------- ------- -------|------- ------- ------- -------|
D|------------4---7-------4---7--|5------------------------------|
A|5------------------------------|----------------5-----------4--|
E|-------------------------------|------------7-----------7------|
      ly  in  the morning I'm a   giving  you the warning, don't you


G|------- ------- ------- -------|------- ------- ------- -------|
D|------------4---7-------4---7--|------------4---7---7---4---7--|
A|5------------------------------|5------------------------------|
E|-------------------------------|-------------------------------|
  step on my  blue    suede       shoes,                      Hey,


G|------- ------- ------- -------|------- ------- ------- -------|
D|5------------------------------|5------------------------------|
A|----------------5-----------5--|----------------5-----------4--|
E|------------7-----------7------|------------7-----------7------|
          diddle, diddle, I  will play my     fiddle,


G|------- ------- ------- -------|------- ------- ------- -------|
D|------------4---7-------4---7--|------------4---7-------4---7--|
A|5------------------------------|5------------------------------|
E|-------------------------------|-------------------------------|
    ain't got     nothing to lose                        Roll o-


G|------- ------- ------- -------|------- ------- ------- -------|
D|5------------------------------|--------7----------------------|
A|----------------5-----------5--|------------4---7-------4---7--|
E|------------7-----------7------|5------------------------------|
     ver, Beetho  -   ven,    and tell    Tchaikov -  sky the news


G|------- ------- ------- -------|------- ------- ------- -------|
D|------------4---5-------4------|7-----------7---7-------7------|
A|5------------------------------|-------------------------------|
E|-------------------------------|-------------------------------|
                                                      You know she

Verse:
G|------- ------- ------- -------|------- ------- ------- -------|
D|------------4---7--------------|5------------------------------|
A|5------------------------------|----------------5-----------4--|
E|-------------------------------|------------7-----------7------|
  winks   a   glow -  worm,       darts   like a      spinning top,
      like

G|------- ------- ------- -------|------- ------- ------- -------|
D|------------4---7-------4---7--|------------4---7-------4---7--|
A|5------------------------------|5------------------------------|
E|-------------------------------|-------------------------------|
                                                    She's got a


G|------- ------- ------- -------|------- ------- ------- -------|
D|5------------------------------|5------------------------------|
A|----------------5-----------5--|----------------2-------3------|
E|------------7-----------7------|3-------5----------------------|
  cra  -  zy  part -  ner,        ought to see her    reel    and


G|------- ------- ------- 4------|7---7-- 4------ ------- -------|
D|--------4---4---7---7----------|----------------7-------4------|
A|5------------------------------|-------------------------------|
E|-------------------------------|-------------------------------|
  rock                                                    Long as


G|------- ------- ------- -------|------- ------- ------- -------|
D|5------------------------------|-------------------------------|
A|--------7-------5--------------|--------4-------7-----------4--|
E|------------------------7------|5-----------------------7------|
  she's   a   dime,           the music   will    ne  -   ver stop
      got

G|------- ------- ------- -------|------- ------- ------- -------|
D|------------4---5-------6------|7-------7-------7-------7------|
A|5------------------------------|-------------------------------|
E|-------------------------------|-------------------------------|
                                          Roll o  -   ver Bee-

Outro:
G|------- ------- ------- -------|------- ------- ------- -------|
D|--------4-------7-------5---4--|--------4---4---7---7---4---7--|
A|5-------------------5----------|5---5--------------------------|
E|-------------------------------|-------------------------------|
  tho  -  ven,                            Roll o  -   ver Bee-


G|------- ------- ------- -------|------- ------- ------- -------|
D|--------4-------7-------5---4--|-------------------------------|
A|5-------------------5----------|5-------3-------2--------------|
E|-------------------------------|------------------------5------|
  tho  -  ven,                            Roll o  -   ver Bee-


G|------- ------- ------- -------|------- ------- ------- -------|
D|--------------------2----------|------------------------2------|
A|--------2-------5-------5------|--------2-------5--------------|
E|3------------------------------|3------------------------------|
  tho  -  ven,                            Roll o  -   ver Bee-


G|------- ------- ------- -------|------- ------- ------- -------|
D|--------4-------7---7---5---4--|--------4-------7---7---5---4--|
A|5------------------------------|5------------------------------|
E|-------------------------------|-------------------------------|
  tho  -  ven,                            Roll o  -   ver Bee-


G|------- ------- ------- -------|------- ------- ------- -------|
D|7---7---7---7---7---7---7---7--|7---7---7---7---7-------4------|
A|-------------------------------|--------------------5----------|
E|-------------------------------|-------------------------------|
  tho  -  ven, beat   to  these   rhythm  and blues


G|------- ------- ------- -------|------- ------- ------- -------|
D|5---4---5---6---7--------------|-------------------------------|
A|------------------------3---5--|--------5----------------------|
E|--------------------5----------|-------------------------------|

Please e-mail me for any corrections.
Расскажи друзьям!




Войдите, используя Ваш аккаунт:



Забыли пароль?
Зарегистрироваться

Привет, гитарист!

Пройди супер-курс по гитаре и порази всех своей игрой!

Забрать курс!
ВАМ ПОДАРКИ ОТ ПРОЕКТА
"ГИТАРНАЯ РЕВОЛЮЦИЯ"