Gitaristu.ru
Аккорды Табулатура Начинающим Мастер-класс Софт Видео Форум Блог
Новости Анонсы Гитары Гитаристы Статьи Аватарки Минусовки
Поиск





Популярные подборы




Настройка гитары






Главная > Аккорды > B > Beatles

Аккорды
Beatles
-
Sergeant peppers lonely (табулатура)

Не нашли аккорды к песне? Посмотрите на


Подбор прислал: gitaristu.ru





OK, I think this song (and the whole album) are really kewl and I wanted to learn how to play it.  I looked all over the whole internet (well not really :-) and couldn't find the tab.  So I tried my hand at figuring it out.  Once I figured it out I thought i ought to upload it to ftp.nevada.edu because it use it alot.  It should be pretty accurate. I had a couple people go over it.  But as always... email me with corrections.

--Aaron

Chords Used in this Song:

      G7     A7      C7     Bb7
E|--3--|--5--|--8--|--6--|
B|--3--|--5--|--8--|--6--|
G|--4--|--4--|--9--|--7--|
D|--5--|--7--|-10--|--8--|
A|--5--|--7--|-10--|--8--|
E|--3--|--5--|--8--|--6--|

intro:

E|-----------------------------------------------8-10----------- |
B|-----8----10-10-------8----10-10-------8--10------- 8-------- |
G|-9----------------9-----------------9-------------------7-9-7-|
D|---------------------------------------------------------------|
A|---------------------------------------------------------------|



verse:

It was 20 yrs ago today.... ...

|-G7-G7-A7-A7-|-C7-C7-G7-G7-|-G7-G7-A7-A7-|-C7-C7-G7-G7-|-A7-A7-A7-A7-|

|-C7-C7-C7-C7-|


Little bass riff that Paul Throws in while George plays G7...


G|------------------------|-----------------------|
D|------------------------|-----------------------|
A|------2-2---3-3---4-5--|-------2-2--5-5--2-2--|
E|--3-3-------------------|--3-3------------------|



This part is played by horns in the song but I thought it might be cool to figure it out on my Guitar.  It sounds cool with a little distortion...   



     C7
E|-----------------------|----------------|--8----------------|
B|-----11-10-8----------|--10----10-10--|-----11-10-8-------|
G|--------------9----9---|-----10--------|--------------10-9-|
D|----------------10-----|----------------|-------------------|


E|----------------8--|-------------------------10--|
B|---------7-10------|------------7-----7-10------|
G|----7-9------------|---7-6-7-9-----9------------|
D|-------------------|-----------------------------|


Chorus:

We're Sargent Pepper's ...

|-G7-G7-Bb7-Bb7-|-C7-C7-G7-G7-|-C7-C7-C7-C7-|-G7-G7-G7-G7-|   etc...

Play The Verse Again After the chorus



That's It I hope you liked it. If you have any comments, questions, or Corrections, please feel free to email me.

--Aaron Rosenblum

rosenblm@maybaum.med.umich.edu 

My homepage:

http://www-personal.engin.umich.edu/~ser/

Tab Transcribed by Kyle Nealy and typed/uploaded by Aaron Rosenblum 


Расскажи друзьям!




Войдите, используя Ваш аккаунт:



Забыли пароль?
Зарегистрироваться

Привет, гитарист!

Пройди супер-курс по гитаре и порази всех своей игрой!

Забрать курс!
ВАМ ПОДАРКИ ОТ ПРОЕКТА
"ГИТАРНАЯ РЕВОЛЮЦИЯ"