Gitaristu.ru
Аккорды Табулатура Начинающим Мастер-класс Софт Видео Форум Блог
Новости Анонсы Гитары Гитаристы Статьи Аватарки Минусовки
Поиск





Популярные подборы




Настройка гитары






Главная > Аккорды > B > Beatles

Аккорды
Beatles
-
Sexy Sadie bass (табулатура)

Не нашли аккорды к песне? Посмотрите на


Подбор прислал: gitaristu.ru
THE BEATLES - SEXY SADIE FROM THE WHITE ALBUM IN 68

 TUNEING G,D,A,E

 Intro
  Q=80
 4/4

  W          W          W          W
|----------|----------|----------|------|
|----------|----------|----------|------|
|----------|----------|----------|------|
|----------|----------|----------|------|


    Verse 1&2&3&4
    $
    E E E E E E E E   Q.   E E E E E   E E E E E E E E
||------------------|------4-4-2-2---|-----------------|
||o-5-5-5-5-4-4-4-4-|----------------|-------------4---|
||o-----------------|-2------------2-|-3-2-3-4-5-7---5-|
||------------------|----------------|-----------------|


  E E E E E E Q  a   E E E E E E E E   E E E E E E E E
|------------------|-----------------|------------------|
|-5-5---5-4-4-4----|-------------4---|-5-5-5-5-4-4-4-4--|
|-----5----------2-|-3-2-3-4-5-7---5-|------------------|
|------------------|-----------------|------------------|


  Bridge
  E E E E E E E E     E E E E Q  E E   E E E E  E E S S E
|-----5------------||----------------|---------------------|
|-3-3---3-----4---o||-5-5-5-5-7--7---|-9-9-9---10-9-7p5-7--|
|---------5-7---5-o||--------------5-|-------5-------------|
|------------------||----------------|---------------------|

  E E E E  E E S S E   E E E E  E E S S E   E E E E E E E E
|--------------------|--------------------|-------------------|
|-9-9-9---10-9-7p5-7-|-9-9-9---10-9-7p5-7-|-9-9-9-9-8-8-8-8---|
|-------5------------|-------5------------|-------------------|
|--------------------|--------------------|-------------------|


  Outro
  &
  E E E E E Q  E     Q.   S S +S  S E S S E   E E E E E E E E
|----------------||-------4-4-(4)-4-4-------|-----------------|
|-5-5-5-5-4-4--4-||o------------------2s4-2-|-----------------|
|----------------||o-2----------------------|-3-5-5-7-5-7-7-5-|
|----------------||-------------------------|-----------------|


  E E E E E E E E   E E E E E E E E   E Q  E E Q  E
|-----------------|-----------------|---------------|
|-5-5-5-5-4-4-4-4-|-------------4---|-5-5--5-4-4--4-|
|-----------------|-3-3-3-3-5-7---5-|---------------|
|-----------------|-----------------|---------------|


  E Q  E E E E E   E Q  E E E E E  5x
|----------7-7---|-----------------|
|-3-3--3-------4-|-5-5--5-4-4-----o|
|--------5-------|------------5-4-o|
|----------------|-----------------|
Расскажи друзьям!




Войдите, используя Ваш аккаунт:



Забыли пароль?
Зарегистрироваться

Привет, гитарист!

Пройди супер-курс по гитаре и порази всех своей игрой!

Забрать курс!
ВАМ ПОДАРКИ ОТ ПРОЕКТА
"ГИТАРНАЯ РЕВОЛЮЦИЯ"