Gitaristu.ru
Аккорды Табулатура Начинающим Мастер-класс Софт Видео Форум Блог
Новости Анонсы Гитары Гитаристы Статьи Аватарки Минусовки
Поиск





Популярные подборы




Настройка гитары






Главная > Аккорды > B > Beatles

Аккорды
Beatles
-
Shes A Woman bass (табулатура)

Не нашли аккорды к песне? Посмотрите на


Подбор прислал: gitaristu.ru
She's A Woman
The Beatles
Written by John Lennon and Paul McCartney; released on single "I Feel Fine / She's A Woman".

A great song by Paul again!

Intro:
G|------ ------ ------ ------|------ ------ ------ ------|
D|---------------------------|---------------------------|
A|---------------------------|---------------------------|
E|---------------------------|---------------------------|



G|------ ------ ------ ------|------ ------ ------ ------|
D|---------------------------|---------------------------|
A|---------------------------|---------------------------|
E|---------------------------|------------------12\5-----|



G|------ ------ ------ ------|------ ------ ------ ------|
D|---------------------------|---------------------------|
A|--------------7------5-----|--------------7------5-----|
E|5------5-------------------|5----------5---------------|



G|------ ------ ------ ------|------ ------ ------ ------|
D|---------------------------|---------------------------|
A|--------------7------5-----|--------------7------5-----|
E|5----------5---------------|5------5-------------------|


Verse:
G|------ ------ ------ ------|------ ------ ------ ------|
D|---------------------------|---------------------------|
A|--------------7------5-----|5------5-------------------|
E|5------5-------------------|--------------5------------|
  My     love          don't  give       me presents


G|------ ------ ------ ------|------ ------ ------ ------|
D|---------------------------|---------------------------|
A|--------------7------5-----|--------------7------5-----|
E|5----------5---------------|5------5-------------------|



G|------ ------ ------ ------|------ ------ ------ ------|
D|---------------------7-----|---------------------------|
A|--------------7------------|5------5-------------------|
E|5------5-------------------|--------------5------------|
  I      know          that   she's  no     peasant


G|------ ------ ------ ------|------ ------ ------ ------|
D|---------------------------|---------------------------|
A|--------------7------5-----|--------------7------5-----|
E|5----------5---------------|5----------5---------------|



G|------ ------ ------ ------|------ ------ ------ ------|
D|--------------7------7-----|--------------7------7-----|
A|5------5-----------------4/|5------5-------------------|
E|---------------------------|---------------------------|
  On  -  ly     e - ver    has    to     give   me


G|------ ------ ------ ------|------ ------ ------ ------|
D|--------------7------7-----|--------------7------------|
A|5------5-------------------|5------5-------------5-----|
E|---------------------------|---------------------------|
  love   for -  e  -   ver    and    for -  e - ver    My


G|------ ------ ------ ------|------ ------ ------ ------|
D|7------7-------------7-----|---------------------------|
A|--------------7------------|5------5-------------------|
E|---------------------------|--------------5------------|
      love          don't     give       me presents


G|------ ------ ------ ------|------ ------ ------ ------|
D|---------------------5-h-7-|---------------------5-/-7-|
A|--------------7------------|--------------5------------|
E|5------5-------------------|5------5-------------------|



G|------ ------ ------ ------|------ ------ ------ ------|
D|---------------------------|---------------------------|
A|7------7-----------------5/|7------7-------------7-----|
E|--------------7------------|--------------7------------|
  Turn   me  on     when   I      get    lone - ly,


G|------ ------ ------ ------|------ ------ ------ ------|
D|--------------7------7-----|--------------7------------|
A|5------5-------------------|5------5-------------5-----|
E|---------------------------|---------------------------|
  peo -  ple    tell   me  that   she's  on  -  ly


G|------ ------ ------ ------|------ ------ ------ ------|
D|7----------7--7------7-----|--------------7------------|
A|---------------------------|5------5-------------------|
E|---------------------------|---------------------------|
  foo  - ling,      I         know       she isn't


G|------ ------ ------ ------|------ ------ ------ ------|
D|7------7-------------5-h-7-|7--------------------------|
A|--------------7------------|-------7------7------7-----|
E|---------------------------|---------------------------|


Verse:
G|------ ------ ------ ------|------ ------ ------ ------|
D|7------7------7------7-----|--------------7------------|
A|---------------------------|5------7-------------7-----|
E|---------------------------|---------------------------|
  She    don't         give   boys      the eye


G|------ ------ ------ ------|------ ------ ------ ------|
D|7----------7---------5-----|7------7-------------------|
A|--------------7------------|--------------7------5-----|
E|---------------------------|---------------------------|



G|------ ------ ------ ------|------ ------ ------ ------|
D|7------7-------------7-----|---------------------------|
A|--------------7------------|5------5-------------------|
E|---------------------------|--------------5------------|
  She    hates         to     see        me cry


G|------ ------ ------ ------|------ ------ ------ ------|
D|7--------------------5-----|7--------------------7-----|
A|--------------7------------|--------------7------------|
E|---------------------------|---------------------------|



G|------ ------ ------ ------|------ ------ ------ ------|
D|--------------7------7-----|--------------7------------|
A|5------5-------------------|5------5-------------------|
E|---------------------------|---------------------8-----|
  She    is     happy      just   to     hear   me


G|------ ------ ------ ------|------ ------ ------ ------|
D|--------------7------7-----|--------------7------------|
A|5------5-------------------|5------5-------------5-----|
E|---------------------------|---------------------------|
  say    that   I      will   ne- ver    leave     her


G|------ ------ ------ ------|------ ------ ------ ------|
D|7----------7--7------------|---------------------------|
A|---------------------------|5----------5---------------|
E|---------------------------|--------------5------------|
  She    don't         give   boys      the eye


G|------ ------ ------ ------|------ ------ ------ ------|
D|7------7-------------5-----|7------7-------------7-----|
A|--------------7------------|--------------7------------|
E|---------------------------|---------------------------|



G|------ ------ ------ ------|------ ------ ------ ------|
D|--------------9------9-----|--------------9------------|
A|7------7-------------------|7------7-------------7-----|
E|---------------------------|---------------------------|
  She    will   ne- ver    make   me     jea -  lous,


G|------ ------ ------ ------|------ ------ ------ ------|
D|--------------7------7-----|--------------7------------|
A|5------5-------------------|5------5-------------5-----|
E|---------------------------|---------------------------|
  gives  me     all    her time,     as     well as


G|------ ------ ------ ------|------ ------ ------ ------|
D|7------7------7------7-----|--------------7------------|
A|---------------------------|5------7-------------------|
E|---------------------------|---------------------------|
  lo- ving,            don't  ask        me why


G|------ ------ ------ ------|------ ------ ------ ------|
D|7------7-------------5-----|7------7-------------7-----|
A|--------------7------------|--------------7------------|
E|---------------------------|---------------------------|


Bridge:
G|------ ------ ------ ------|------ ------ ------ ------|
D|---------------------------|4------4-------------4-----|
A|4------4-------------4-----|--------------4------------|
E|--------------4------------|---------------------------|
  She's  a   wo  -  man who un  - der -  stands,


G|------ ------ ------ ------|------ ------ ------ ------|
D|---------------------------|---------------------------|
A|4------4-------------4-----|5------5------7------7-----|
E|--------------4------------|---------------------------|
  She's  a   wo  -  man who loves her    man

Verse:
G|------ ------ ------ ------|------ ------ ------ ------|
D|7----------7--7------7-----|--------------7------7-----|
A|---------------------------|5------5-------------------|
E|---------------------------|---------------------------|
  My     love          don't  give       me presents


G|------ ------ ------ ------|------ ------ ------ ------|
D|7------7-------------5-h-7-|--------------7------7-----|
A|--------------7------------|5------7-------------------|
E|---------------------------|---------------------------|



G|------ ------ ------ ------|------ ------ ------ ------|
D|7------7-------------7-----|--------------7------7-----|
A|--------------7------------|5------5-------------------|
E|---------------------------|---------------------------|
  I      know          that   she's  no     peasant


G|------ ------ ------ ------|------ ------ ------ ------|
D|7------7-------------5-----|7------7-------------7-----|
A|--------------7------------|--------------7------------|
E|---------------------------|---------------------------|



G|------ ------ ------ ------|------ ------ ------ ------|
D|--------------7------------|--------------7------------|
A|5--------------------------|5------5-------------------|
E|---------------------8-----|---------------------8-----|
  On  -  ly     e - ver    has    to     give   me


G|------ ------ ------ ------|------ ------ ------ ------|
D|--------------7------------|--------------7------------|
A|5------5-------------------|5------5-------------5-----|
E|---------------------8-----|---------------------------|
  love   for -  e  -   ver    and    for -  e - ver    My


G|------ ------ ------ ------|------ ------ ------ ------|
D|7------7-------------5-----|--------------7------7-----|
A|--------------7------------|5----------5---------------|
E|---------------------------|---------------------------|
      love          don't     give       me presents


G|------ ------ ------ ------|------ ------ ------ ------|
D|7------7-------------5-----|7----------7---------5-h-7-|
A|--------------7------------|--------------7------------|
E|---------------------------|---------------------------|



G|------ ------ ------ ------|------ ------ ------ ------|
D|---------------------------|---------------------------|
A|7------7-------------------|7------7-------------7-----|
E|--------------7------7-----|--------------7------------|
  Turn   me  on     when   I      get    lone - ly,


G|------ ------ ------ ------|------ ------ ------ ------|
D|--------------7------------|--------------7------------|
A|5------5-----------------3-h5------5-------------5-----|
E|---------------------------|---------------------------|
  peo -  ple    tell   me  that   she's  on  -  ly


G|------ ------ ------ ------|------ ------ ------ ------|
D|7----------7--7------7-----|--------------7------7-----|
A|---------------------------|5----------5---------------|
E|---------------------------|---------------------------|
  foo  - ling,      I         know       she isn't


G|------ ------ ------ ------|------ ------ ------ ------|
D|7------7------7------7-----|---------------------------|
A|---------------------------|7------7------7------7-----|
E|---------------------------|---------------------------|


Break (solo):
G|------ ------ ------ ------|------ ------ ------ ------|
D|7------7-------------------|7------7------7------------|
A|--------------5------7-----|---------------------7-----|
E|---------------------------|---------------------------|



G|------ ------ ------ ------|------ ------ ------ ------|
D|7------7-------------------|7------7------7------------|
A|--------------5------7-----|---------------------5-----|
E|---------------------------|---------------------------|



G|------ ------ ------ ------|------ ------ ------ ------|
D|---------------------------|---------------------------|
A|5------5-------------3-----|5------5-------------------|
E|--------------5------------|--------------5------8-----|



G|------ ------ ------ ------|------ ------ ------ ------|
D|7------7-------------5-----|7------7-------------5-/-7-|
A|--------------7------------|--------------7------------|
E|---------------------------|---------------------------|



G|------ ------ ------ ------|------ ------ ------ ------|
D|--------------9------------|-------4------5------5-----|
A|7------7-------------7-----|5--------------------------|
E|---------------------------|---------------------------|



G|------ ------ ------ ------|------ ------ ------ ------|
D|7------7-------------5-----|7------7-------------------|
A|--------------7------------|--------------7------------|
E|---------------------------|---------------------------|


Bridge:
G|------ ------ ------ ------|------ ------ ------ ------|
D|---------------------------|4------4-------------4-----|
A|4------4-------------4-----|--------------4------------|
E|--------------4------------|---------------------------|
  She's  a   wo  -  man who un  - der -  stands,


G|------ ------ ------ ------|------ ------ ------ ------|
D|---------------------------|---------------------------|
A|4--------------------4-----|5------5------7------7-----|
E|--------------4------------|---------------------------|
  She's  a   wo  -  man who loves her    man

Verse:
G|------ ------ ------ ------|------ ------ ------ ------|
D|7------7------7------7-----|---------------------------|
A|---------------------------|5------5-------------------|
E|---------------------------|--------------5------5-----|
  My     love          don't  give       me presents


G|------ ------ ------ ------|------ ------ ------ ------|
D|---------------------5-h-7-|7--------------------5-----|
A|--------------7------------|--------------7------------|
E|5--------------------------|---------------------------|



G|------ ------ ------ ------|------ ------ ------ ------|
D|7------7-------------7-----|--------------7------7-----|
A|--------------7------------|5------5-------------------|
E|---------------------------|---------------------------|
  I      know          that   she's  no     peasant


G|------ ------ ------ ------|------ ------ ------ ------|
D|7------7-------------5-h-7-|7------7-------------7-----|
A|--------------7------------|--------------7------------|
E|---------------------------|---------------------------|



G|------ ------ ------ ------|------ ------ ------ ------|
D|---------------------------|---------------------------|
A|5------5-------------3-----|5------5-------------3-----|
E|--------------5------------|--------------5------------|
  On  -  ly     e - ver    has    to     give   me


G|------ ------ ------ ------|------ ------ ------ ------|
D|---------------------------|---------------------------|
A|5------5-------------3-----|5------5-------------------|
E|--------------5------------|--------------5------8-----|
  love   for -  e  -   ver    and    for -  e - ver    My


G|------ ------ ------ ------|------ ------ ------ ------|
D|7----------7---------5-----|--------------7------------|
A|--------------7------------|5------5-------------------|
E|---------------------------|---------------------------|
      love          don't     give       me presents


G|------ ------ ------ ------|------ ------ ------ ------|
D|7------7-------------5-----|7------7-------------5-/-7-|
A|--------------7------------|--------------7------------|
E|---------------------------|---------------------------|



G|------ ------ ------ ------|------ ------ ------ ------|
D|---------------------------|---------------------------|
A|7------7-----------------5-h7------7-------------7-----|
E|--------------7------7-----|--------------7------------|
  Turn   me  on     when   I      get    lone - ly,


G|------ ------ ------ ------|------ ------ ------ ------|
D|--------------7------------|--------------7------------|
A|5------5-------------------|5------5-------------5-----|
E|---------------------------|---------------------------|
  peo -  ple    tell   me  that   she's  on  -  ly


G|------ ------ ------ ------|------ ------ ------ ------|
D|7------7------7------7-----|---------------------------|
A|---------------------------|5----------5---------------|
E|---------------------------|--------------5------------|
  foo  - ling,      I         know       she isn't


G|------ ------ ------ ------|------ ------ ------ ------|
D|7------7-------------5-----|7------7-------------------|
A|--------------7------------|--------------7------7-----|
E|---------------------------|---------------------------|
                                                She's  a

Outro:
G|------ ------ ------ ------|------ ------ ------ ------|
D|7------7-------------5-----|7------7-------------5-----|
A|--------------7------------|--------------7------------|
E|---------------------------|---------------------------|
  woman,                                        she's  a


G|------ ------ ------ ------|------ ------ ------ ------|
D|7------7-------------5-----|7------7-------------5-----|
A|--------------7------------|--------------7------------|
E|---------------------------|---------------------------|
  woman,                                        she's  a


G|------ ------ ------ ------|------ ------ ------ ------|
D|---------------------------|---------------------------|
A|5------5-------------3-----|5------5-------------------|
E|--------------5------------|--------------5------8-----|
  woman,                                        She's  a


G|------ ------ ------ ------|------ ------ ------ ------|
D|7------7-------------5-----|7------7-------------5-----|
A|--------------7------------|--------------7------------|
E|---------------------------|---------------------------|
  woman,                                        She's  my...
fade...

Please e-mail me for any corrections.
Расскажи друзьям!




Войдите, используя Ваш аккаунт:



Забыли пароль?
Зарегистрироваться

Привет, гитарист!

Пройди супер-курс по гитаре и порази всех своей игрой!

Забрать курс!
ВАМ ПОДАРКИ ОТ ПРОЕКТА
"ГИТАРНАЯ РЕВОЛЮЦИЯ"