Gitaristu.ru
Аккорды Табулатура Начинающим Мастер-класс Софт Видео Форум Блог
Новости Анонсы Гитары Гитаристы Статьи Аватарки Минусовки
Поиск





Популярные подборы




Настройка гитары






Главная > Аккорды > B > Beatles

Аккорды
Beatles
-
Young Blood bass (табулатура)

Не нашли аккорды к песне? Посмотрите на


Подбор прислал: gitaristu.ru
YOUNG BLOOD

Written by Jerry Leiber, Mike Stoller & Doc Pomus

INTRO
  t=135
G|---------------------------------|---------------------------------|
D|---------------------------------|-------------------------4-----6-|
A|---------------------------------|-----------------------7---------|
E|---------------------------------|---------------------------------|

VERSE

G|---------------------------------|---------------------------------|
D|-7-------7-----------------------|-7-------7-----------------------|
A|---------------4-7-------4-------|-----------------7-------4-------|
E|---------------------------------|---------------------------------|

G|---------------------------------|---------------------------------|
D|-7-------7---------------6-------|-7-------7-----------------------|
A|-----------------7---------------|-----------------7-------4-------|
E|---------------------------------|---------------------------------|

G|---------------------------------|---------------------------------|
D|-7-------7-----------------------|-7-------4-----------------------|
A|-----------------7-------4-------|-----------------7-------4-------|
E|---------------------------------|---------------------------------|

G|---------------------------------|---------------------------------|
D|-7-------------------------------|---------------------------------|
A|---------------------------------|-------------------------------4-|
E|---------------------------------|-----------------------5-7-------|

CHORUS

G|---------------------------------|-7-------7-----------------------|
D|-----------------7-------4-------|-----------------7-------4-------|
A|-5-------------------------------|---------------------------------|
E|---------------------------------|---------------------------------|

G|---------------------------------|---------------------------------|
D|-7-------7-----------------------|-7-------4-----------------------|
A|-----------------7-------4-------|-----------------7-------4-------|
E|---------------------------------|---------------------------------|

G|-7-------7-----------------------|-7-------------------------------|
D|-----------------7-------4-------|-----------------7-------4-------|
A|---------------------------------|---------------------------------|
E|---------------------------------|---------------------------------|

G|---------------------------------|---------------------------------|
D|---------------------------------|-------------------------4-----6-|
A|-7-------------------------------|-------5-6-----6-7-----7---------|
E|---------------------------------|---------------------------------|

VERSE

G|---------------------------------|---------------------------------|
D|-7-------7-----------------------|-7-------7-----------------------|
A|-----------------7-------4-------|-----------------7-------4-------|
E|---------------------------------|---------------------------------|

G|---------------------------------|---------------------------------|
D|-7-------7-----------------------|-7-------7-----------------------|
A|-----------------7-------4-------|-----------------7-------4-------|
E|---------------------------------|---------------------------------|

G|---------------------------------|---------------------------------|
D|-7-------7-----------------------|-7-------4-----------------------|
A|-----------------7-------4-------|-----------------7-------4-------|
E|---------------------------------|---------------------------------|

G|---------------------------------|---------------------------------|
D|-7-------------------------------|---------------------------------|
A|---------------------------------|-------------------------------4-|
E|---------------------------------|-----------------------5-7-------|

CHORUS

G|---------7-----------------------|-7-----7-4-----4-----------------|
D|-----------------7-------4-----7-|-----------------7-------------4-|
A|-5-------------------------------|---------------------------------|
E|---------------------------------|---------------------------------|

G|---------------------------------|---------------------------------|
D|-7-------7-----------------------|-7-------4-----------------------|
A|-----------------7-------4-------|-----------------7-------4-------|
E|---------------------------------|---------------------------------|

G|---------7-----------------------|-7-------4-----------------------|
D|-----------------7-------4-----7-|-----------------7-------4-------|
A|-5-------------------------------|---------------------------------|
E|---------------------------------|---------------------------------|

G|---------------------------------|---------------------------------|
D|---------------------------------|---------------------------------|
A|-7-------------------------------|-------4-5-----5-6-----6-7-------|
E|---------------------------------|---------------------------------|

BRIDGE

G|---------------------------------|---------------------------------|
D|-7-----------------------6-------|-7-------------------------------|
A|---------------------------------|---------------------------------|
E|---------------------------------|---------------------------------|

G|---------------------------------|---------------------------------|
D|-5-------------------------------|-5-------2-----------------------|
A|---------2-------5-------2-------|-----------------5-------2-------|
E|---------------------------------|---------------------------------|

G|---------------------------------|---------------------------------|
D|-7-----------------------6-------|-7-------------------------------|
A|---------------------------------|---------------------------------|
E|---------------------------------|---------------------------------|

G|---------------------------------|---------------------------------|
D|---------------------------------|---------------------------------|
A|-7-------------------------------|-----------------7-------5-------|
E|---------------------------------|---------------------------------|

VERSE

G|---------------------------------|---------------------------------|
D|---------------------------------|-7-------7-----------------------|
A|---------4-------7-------4-------|-----------------7-------4-------|
E|-5-------------------------------|---------------------------------|

G|---------------------------------|---------------------------------|
D|-7-------7-----------------------|-7-------7-----------------------|
A|-----------------7-------4-------|-----------------7-------4-------|
E|---------------------------------|---------------------------------|

G|---------------------------------|---------------------------------|
D|-7-------7-----------------------|-7-------7-----------------------|
A|-----------------7-------4-------|-----------------7-------4-------|
E|---------------------------------|---------------------------------|

G|---------------------------------|---------------------------------|
D|-7-------------------------------|---------------------------------|
A|---------------------------------|-------------------------------4-|
E|---------------------------------|-----------------------5-7-------|

CHORUS

G|---------------------------------|---------7-----------------------|
D|----------------/7-------4-------|-----------------7-------------4-|
A|-5-------------------------------|-5-------------------------------|
E|---------------------------------|---------------------------------|

G|---------------------------------|---------------------------------|
D|-7-------------------------------|-7-------4-----------------------|
A|-----------------7-------4-------|-----------------7-------4-------|
E|---------------------------------|---------------------------------|

G|---------7-----------------------|-7-------7-----------------------|
D|-----------------7-------4-------|-----------------7-------4-------|
A|-5-------------------------------|---------------------------------|
E|---------------------------------|---------------------------------|

G|---------------------------------|---------------------------------|
D|---------------------------------|---------------------------------|
A|-7-------------------------------|-------------------------4-------|
E|---------------------------------|-------5-6-----6-7-----7---------|

OUTRO

G|---------7-----------------------|---------------------------------|
D|-----------------7-------4-----4-|---------4-------5-------6-------|
A|-5-------------------------------|-5-------------------------------|
E|---------------------------------|---------------------------------|

G|---------------------------------|---------------------------------|
D|-7-------7-----------------------|-7-------4-----------------------|
A|-----------------7-------4-------|-----------------7-------4-------|
E|---------------------------------|---------------------------------|

G|---------7-----------------------|---------7-----------------------|
D|---------------4-7-------4-----4-|---------------4-7-------4-------|
A|-5-------------------------------|-5-------------------------------|
E|---------------------------------|---------------------------------|

G|---------------------------------|---------------------------------|
D|---------------------------------|---------------------------------|
A|-7-------------------------------|---------------------------------|
E|---------------------------------|-5-------------------------------|
Расскажи друзьям!




Войдите, используя Ваш аккаунт:



Забыли пароль?
Зарегистрироваться

Привет, гитарист!

Пройди супер-курс по гитаре и порази всех своей игрой!

Забрать курс!
ВАМ ПОДАРКИ ОТ ПРОЕКТА
"ГИТАРНАЯ РЕВОЛЮЦИЯ"