Gitaristu.ru
Аккорды Табулатура Начинающим Мастер-класс Софт Видео Форум Блог
Новости Анонсы Гитары Гитаристы Статьи Аватарки Минусовки
Поиск





Популярные подборы




Настройка гитары






Главная > Аккорды > B > Beatles

Аккорды
Beatles
-
Youve got to hide your love away-mtab (табулатура)

Не нашли аккорды к песне? Посмотрите на


Подбор прислал: gitaristu.ru



Date: Fri, 21 Jan 2005 11:47:07 +1000
From: Andrew Garnett.vic 
Subject: b/beatles/youve_got_to_hide_your_love_away.mtab


-------------------------------------------------------------------------------
			    YOU'VE GOT TO HIDE YOUR LOVE AWAY - BEATLES
				MANDOLIN TAB
-------------------------------------------------------------------------------

Tabbed By : Andy Garnett
e-mail: 

Tuning:GDAE


INTRO/VERSE

G	D    F       G
Here I stand head in hand
C		    F         C  	
Turn my face to the wall 
G        D      F       G
If she's gone I cant go on
C               F     C     D
Feelin two foot sma-all
G    D     F      G
Everywhere people stare
C              F     C 
Each and every day
G     D        F        G
I can see them laugh at me
C		F         C      D
And I hear them saaaaaaaayyyyyy

(following on from the D it goes...)

E|---2-2-2----2-2-2-----2-2-2----2-2-2---------------------------------------------------|
A|---0-0-0----0-0-0-----0-0-0----0-0-0---------------------------------------------------|
D|---------------------------------------------------------------------------------------|
G|----------5--------4--------2----------------------------------------------------------|


CHORUS

G                  C            	 Dsus4	   D	   Dsus2       D
Hey  You've got to hide your love away
E|---------------------------------------3-3-3---2-2-2-----0-0-0-----2-2-2---------------|
A|---------------------------------------0-0-0---0-0-0-----0-0-0-----0-0-0---------------| x 2
D|---------------------------------------0-0-0---0-0-0-----0-0-0-----0-0-0---------------|
G|---------------------------------------2-2-2---2-2-2-----2-2-2-----2-2-2---------------|


VERSE


CHORUS


VERSE



Chords used:

        GDAE

G	0023   
D	2002
F	5301
C	0233
Dsus4	2003
Dsus2	2000


There's not many mandolin tabs out there so I hope this goes down well 


===============================================================================


Расскажи друзьям!




Войдите, используя Ваш аккаунт:



Забыли пароль?
Зарегистрироваться

Привет, гитарист!

Пройди супер-курс по гитаре и порази всех своей игрой!

Забрать курс!
ВАМ ПОДАРКИ ОТ ПРОЕКТА
"ГИТАРНАЯ РЕВОЛЮЦИЯ"