Gitaristu.ru
Аккорды Табулатура Начинающим Мастер-класс Софт Видео Форум Блог
Новости Анонсы Гитары Гитаристы Статьи Аватарки Минусовки
Поиск





Популярные подборы




Настройка гитары






Главная > Аккорды > B > Black N Blue

Аккорды
Black N Blue
-
I Want It All I Want It Now bass (табулатура)



Подбор прислал: gitaristu.ru
http://en.wikipedia.org/wiki/Black_'N_Blue
http://www.sleazeroxx.com/bands/blacknblue/blacknblue.shtml

Here's the perfecto bass tab for a great song. Was surpised not to see more BNB tabs up 
now Thayer's getting the exposure in KISS, but oh well. Let's rock on with this!

Bass intro/x8

G|------------------------------|
D|------------------------------|
A|------------------------------|
E|--0-0-0--0-0-0-0-0-0-0--------|

Verse/x8

G|------------------------------|
D|------------------------------|
A|------------------------------|
E|--0-0-0--0-0-0-0-0-0-0--------|

(Break)

x8

G|------------------------------|
D|------------------------------|
A|------------------------------|
E|--0-0-0--0-0-0-0-0-0-0--------|

(Break)


Chorus/x4

G|------------------|
D|------------------|
A|--7---------------|
E|----7--9--10------|

(Break)

Verse
Chorus


Guitar solo/x4

G|--------------------------------------------------------|
D|--------------------------------------------------------|
A|--7--7-7-7----------------------------------------------|
E|---------------7--7-7-7--9--9-9-9--10-10-10-10----------|

(Break)

Bass breakdown/x2
G|------------------------------|
D|------------------------------|
A|------------------------------|
E|--0-0-0--0-0-0-0-0-0-0--------|


Chorus

Outro(Guitar solo)/x3

Last time
G|--------------------------------------------------------|
D|--------------------------------------------------------|
A|--7--7-7-7----------------------------------------------|
E|---------------7--7-7-7--9--9-9-9--10-------------------|


Simple stuff but that's how it is. Rock on! - Steve
Расскажи друзьям!




Войдите, используя Ваш аккаунт:



Забыли пароль?
Зарегистрироваться

Привет, гитарист!

Пройди супер-курс по гитаре и порази всех своей игрой!

Забрать курс!
ВАМ ПОДАРКИ ОТ ПРОЕКТА
"ГИТАРНАЯ РЕВОЛЮЦИЯ"