Gitaristu.ru
Аккорды Табулатура Начинающим Мастер-класс Софт Видео Форум Блог
Новости Анонсы Гитары Гитаристы Статьи Аватарки Минусовки
Поиск





Популярные подборы




Настройка гитары






Главная > Аккорды > B > Black Velvet

Аккорды
Black Velvet
-
Gentle dreams (табулатура)



Подбор прислал: gitaristu.ru


      *Black Velvet - Gentle Dreams (intro)*

E---------------------|----------------------|
B---------------------|----------------------|
G---7----5----3/----5-|---7----5----3--3--2--|
D--7----5----3/----5--|--7----5----3--3--3--3|
A-5----3----1/----3---|-5----3----1----------|
E---------------------|----------------------|

E---------------------|----------------------|
B---------------------|----------------------|
G-3------7----5----3/-|---5----7----5----3---|
D--3/---7----5----3/--|--3----7----5----3--3-|
A------5----3----1/---|-3----5----3----1-----|
E---------------------|----------------------|

E---------------------|
B---------------------|
G--3--2--3------7~~~~-|
D----3--3--3/---7~~~~-|
A---------------5~~~~-|
E---------------------|


Расскажи друзьям!




Войдите, используя Ваш аккаунт:



Забыли пароль?
Зарегистрироваться

Привет, гитарист!

Пройди супер-курс по гитаре и порази всех своей игрой!

Забрать курс!
ВАМ ПОДАРКИ ОТ ПРОЕКТА
"ГИТАРНАЯ РЕВОЛЮЦИЯ"