Gitaristu.ru
Аккорды Табулатура Начинающим Мастер-класс Софт Видео Форум Блог
Новости Анонсы Гитары Гитаристы Статьи Аватарки Минусовки
Поиск





Популярные подборы




Настройка гитары






Главная > Аккорды > B > Black Velvet

Аккорды
Black Velvet
-
When the wind blows (аккорды)



Подбор прислал: gitaristu.ru





               Artist: Black Velvet
            Title: When the Wind Blows

           Tabbed by: Aldrin Yousefian
        E-Mail: soccer46soccer46@yahoo.com

     -Arrangement for single Acoustic guiatar-


_________________________________________________

-Capo on the third fret, classical guitar with a feather pick works best.
Watch for strumming patter and timing. Im the actual Artist who wrote this song,
so if you have any questions, seggestions, comments, etc.,
please feel free to send me an e-mail at the addres above-
_________________________________________________

-Hit the first open note then strum the Em chord immediately after.
After the first strum, wait two counts before strumming the next chord.
For each chord, the pattern is.......................
       (down...2counts...down up down up)
_________________________________________________

                Verse 1-7

      -E major-          -D major-

E|----0-----0-0-0-0-|-2-----2-2-2-2----|
B|----0-----0-0-0-0-|-3-----3-3-3-3----|
G|----0-----0-0-0-0-|-2-----2-2-2-2----|
D|----2-----2-2-2-2-|-0-----0-0-0-0----|
A|----2-----2-2-2-2-|-0-----0-0-0-0----|
E|--0---------------|------------------|

      -C major-

E|----0-----0-0-0-0-|
B|----1-----1-1-1-1-|
G|----0-----0-0-0-0-|
D|----2-----2-2-2-2-|  read note under G5 before
A|----3-----3-3-3-3-|
E|----0-----0-0-0-0-|    playing the G5 chord

        -G5-

E|----3-3-3--3-3-3--|
B|----3-3-3--3-3-3--|
G|----0-0-0--0-0-0--|
D|----0-0-0--0-0-0--|
A|----x-x-x--x-x-x--|
E|----3-3-3--3-3-3--|

_________________________________________________

                     -NOTE-

-For the G5 chord, the strumming pattern is.....
( down down up up down up) After the G5 chord,
continue to do the same chords and the same strumming
pattern one more time, but instead of a G5 chord, play a
D major chord, and leave everything else the same,
and thats verse 1-7
_________________________________________________

-Fore this verse, the chords are the same but the
strumming pattern has slightly changed to give the
song a bit more fast pase sound, so for these chords,
the strumming pattern is..........( down down up down up down up )
Play it just a bit fast, just enough so you can hear the diffrance,
nothing more nothing less, this is VERY important.
Try to play the first chord of this verse load, and the rest normal.
To give the song intensity. The strumming pattern for both G5 and
D majore are the same, only the first 3 chords have
diffrent strumming patterns.
_________________________________________________

               Verse 2-7

     -E major-          -D major-

E|--0--0-0-0-0-0-0--|-2--2-2-2-2-2-2---|
B|--0--0-0-0-0-0-0--|-3--3-3-3-3-3-3---|
G|--0--0-0-0-0-0-0--|-2--2-2-2-2-2-2---|
D|--2--2-2-2-2-2-2--|-0--0-0-0-0-0-0---|
A|--2--2-2-2-2-2-2--|-0--0-0-0-0-0-0---|
E|------------------|------------------|

     -C major-

E|--0--0-0-0-0-0-0--|
B|--1--1-1-1-1-1-1--|
G|--0--0-0-0-0-0-0--|
D|--2--2-2-2-2-2-2--|  read note under C major
A|--3--3-3-3-3-3-3--|
E|--0--0-0-0-0-0-0--|

_________________________________________________

                       -NOTE-

-Repeat the chords ( G5 amp; D majore) exactly the same as they
were in verse one, just add then too verse two,
G5 before D majore, same strumming, same place, same eveything,
and thats verse 2-7
_________________________________________________

-This next verseis only played once in the song, verious
chords but same strumming pattern. In the last verse,
the pattern was ( down down up down up down up )
The same pattern is played in this entire verse,
I told you to play this pattern a bit fast in the
last verse, this time, i want it slo and in tempo,
nice and easy, but try to play this verse quiet,
enough to hear, but just brush the pick over the strings, nice and smooth.
_________________________________________________

                Verse 3-7

      -E major-            N/A

E|--0--0-0-0-0-0-0-|--0--0-0-0-0-0-0--|
B|--0--0-0-0-0-0-0-|--0--0-0-0-0-0-0--|
G|--0--0-0-0-0-0-0-|--2--2-2-2-2-2-2--|
D|--2--2-2-2-2-2-2-|--2--2-2-2-2-2-2--|
A|--2--2-2-2-2-2-2-|--0--0-0-0-0-0-0--|
E|-----------------|------------------|


    -E major-

E|--0--0-0-0-0-0-0-|
B|--0--0-0-0-0-0-0-|
G|--0--0-0-0-0-0-0-|
D|--2--2-2-2-2-2-2-|  read note under E major
A|--2--2-2-2-2-2-2-|
E|-----------------|
_________________________________________________

                     -NOTE-

-If not the hole song, then this part of the song might get wierd,
not hard, just might be hard understanding. In the third verse,
we played the E major chord and the N/A chord, then jumped back
to the E major chord, now after this chord, we will play the
N/A chord again, but not as normal, the strumming pattern is..............
( down..cut..down up..cut..up down up )
the cut, when you strum the chord, silence your guitar right after,
with your hand, palm, whatever is easier for you.
After the up down up, just go back to the E major chord and
play the following witht he same strumming pattern as before.
( down down up down up down up )
_________________________________________________


      -E major-         -E major-

E|--0--0-0-0-0-0-0-|--0--0-0-0-0-0-0-|
B|--0--0-0-0-0-0-0-|--0--0-0-0-0-0-0-|
G|--0--0-0-0-0-0-0-|--0--0-0-0-0-0-0-|
D|--2--2-2-2-2-2-2-|--2--2-2-2-2-2-2-|
A|--2--2-2-2-2-2-2-|--2--2-2-2-2-2-2-|
E|-----------------|-----------------|

     -A major 7-       -A major 7-

E|--0--0-0-0-0-0-0-|--0--0-0-0-0-0-0-|
B|--1--1-1-1-1-1-1-|--1--1-1-1-1-1-1-|
G|--0--0-0-0-0-0-0-|--0--0-0-0-0-0-0-|
D|--2--2-2-2-2-2-2-|--2--2-2-2-2-2-2-|
A|--0--0-0-0-0-0-0-|--0--0-0-0-0-0-0-|
E|-----------------|-----------------|

      -G major-         -G major-

E|--1--1-1-1-1-1-1-|--1--1-1-1-1-1-1-|
B|--0--0-0-0-0-0-0-|--0--0-0-0-0-0-0-|
G|--0--0-0-0-0-0-0-|--0--0-0-0-0-0-0-|
D|--0--0-0-0-0-0-0-|--0--0-0-0-0-0-0-|
A|--2--2-2-2-2-2-2-|--2--2-2-2-2-2-2-|
E|--3--3-3-3-3-3-3-|--3--3-3-3-3-3-3-|

      -C major-        -A major-

E|--0--0-0-0-0-0-0-|--0--0-0-0-0-0-0-|
B|--1--1-1-1-1-1-1-|--1--1-1-1-1-1-1-|
G|--0--0-0-0-0-0-0-|--2--2-2-2-2-2-2-|
D|--2--2-2-2-2-2-2-|--2--2-2-2-2-2-2-|
A|--3--3-3-3-3-3-3-|--0--0-0-0-0-0-0-|
E|--0--0-0-0-0-0-0-|-----------------|



      -A major-        -E major-

E|--0--0-0-0-0-0-0-|--0--0-0-0-0-0-0-|
B|--1--1-1-1-1-1-1-|--0--0-0-0-0-0-0-|
G|--2--2-2-2-2-2-2-|--0--0-0-0-0-0-0-|
D|--2--2-2-2-2-2-2-|--2--2-2-2-2-2-2-|
A|--0--0-0-0-0-0-0-|--2--2-2-2-2-2-2-|
E|-----------------|-----------------|

      -E major-

E|--0--0-0-0-0-0-0-|
B|--0--0-0-0-0-0-0-|
G|--0--0-0-0-0-0-0-|
D|--2--2-2-2-2-2-2-|  read note under E major
A|--2--2-2-2-2-2-2-|
E|-----------------|
_________________________________________________

                      -NOTE-

-After you stummed the E major, strum it once more, and make
that last strum sound like what you did in the first verse,
and now repeat verse 1 amp; 2, you finished verse 3-7.
_________________________________________________

-After repeating verses 1 amp; 2, play that once more with
this strumming pattern................
( down down up down up down up ) but.  this is very important,
so your gonna play verses 1 amp; 2 agian, but not hitting all the strings,
just the bottom three strings. ( E, B, G ) this makes the song
quiet and relaxing, getting ready for fast strumming,
play it nice and slow. Instead of the G5 and the D major
chords at the end of the verse, play this,
so you play E major, D major and C major, then you play this......
_________________________________________________

E|--3-3-2-2-3-2-0--|
B|--3-3-3-3-3-3-0--|
G|--0-0-0-0-0-0-0--|
D|--0-0-0-0-0-0-2--|
A|--------------2--|  read note after tablature
E|-----------------|
_________________________________________________

                     -NOTE-

-After hitting the last chord ( E major) in the example above,
start to play verse two, but again, always have this ending here
( example above )make sure to play a bit faster like you did
last time..not to loud, agian..just enough so you notice it, thats verse 6-7.
_________________________________________________

-After playing verse two, strum that last E major chord
and make it nice and slow strum downward, then pause,
and play this very very slowly..........
_________________________________________________

             Verse 7-7

E|---------------|---------------|
B|-----0-----0---|----0-----0----|
G|----0-0---0-0--|---0-0---0-0---|
D|---2---2-2---2-|--2---2-2---2--|
A|--2-----3------|-4-----3-------|
E|---------------|---------------|

     -A major-

E|--0------------|
B|--0------------|
G|--0------------|
D|--2------------|   read note under tablature
A|--2------------|
E|---------------|
_________________________________________________

                     -NOTE-

-So you should play that last strum very slow, and thats the song,
if you got this far, please e-mail me, i really want to know who did this,
theres a lot of reading, but i wanted to make it clear enough,
thanks again for checking this out.
_________________________________________________



Расскажи друзьям!




Войдите, используя Ваш аккаунт:



Забыли пароль?
Зарегистрироваться

Привет, гитарист!

Пройди супер-курс по гитаре и порази всех своей игрой!

Забрать курс!
ВАМ ПОДАРКИ ОТ ПРОЕКТА
"ГИТАРНАЯ РЕВОЛЮЦИЯ"