Gitaristu.ru
Аккорды Табулатура Начинающим Мастер-класс Софт Видео Форум Блог
Новости Анонсы Гитары Гитаристы Статьи Аватарки Минусовки
Поиск





Популярные подборы




Настройка гитары






Главная > Аккорды > B > Blockheads

Аккорды
Blockheads
-
Billercay dickie (бас)



Подбор прислал: gitaristu.ru


The Blockheads
Bassist: Norman Watt-roy

 Billercay Dickie


 Good Evening....... Very well
G-----------
D-----------   O
A---9-6-4-1-   O X1
E----------2



G-----------
D-----------   O
A----6-6-6-6   O X1
E-----6-6-6-


G-----------
D-----------   O
A----4-4-4-4   O X1
E-----4-4-4-



G-----------
D-----------   O
A-----------   O X1
E--2-2-2-2-2



You ask Joyce and Vickie.......
G-----------
D-----------   O
A----6-6-6-6   O X1
E-----6-6-6-



G-----------
D-----------   O
A----4-4-4-4   O X1
E-----4-4-4-



G-----------
D-----------   O
A----6-6-6-6   O X1
E-----6-6-6-




G-----------
D-----------   O
A----4-4-4-4   O X1
E-----4-4-4-




G-----------
D-----------   O
A---9-6-4-1-   O X1
E----------2




G-----------
D-----------   O
A----6-6-6-6   O X1
E-----6-6-6-



G-----------
D-----------   O
A----4-4-4-4   O X1
E-----4-4-4-



G-----------
D-----------   O
A-----------   O X1
E--2-2-2-2-2

You ask Joyce and Vickie.....
G-----------
D-----------   O
A----6-6-6-6   O X1
E-----6-6-6-




G-----------
D-----------   O
A----4-4-4-4   O X1
E-----4-4-4-



G-----------
D-----------   O
A----6-6-6-6   O X1
E-----6-6-6-



G-----------
D-----------   O
A----4-4-4-4   O X1
E-----4-4-4-



G-----------
D-----------   O
A---9-6-4-1-   O X1
E----------2


You should never hold a candle.......
G-----------
D-----------   O
A--6-6-6-6-6   O X4
E-4-4-4-4-4-






And Repeat all. Joe

Расскажи друзьям!




Войдите, используя Ваш аккаунт:



Забыли пароль?
Зарегистрироваться

Привет, гитарист!

Пройди супер-курс по гитаре и порази всех своей игрой!

Забрать курс!
ВАМ ПОДАРКИ ОТ ПРОЕКТА
"ГИТАРНАЯ РЕВОЛЮЦИЯ"