Gitaristu.ru
Аккорды Табулатура Начинающим Мастер-класс Софт Видео Форум Блог
Новости Анонсы Гитары Гитаристы Статьи Аватарки Минусовки
Поиск





Популярные подборы




Настройка гитары






Главная > Аккорды > B > Blockheads

Аккорды
Blockheads
-
Hit me with your rythmstick (бас)



Подбор прислал: gitaristu.ru



Date: Sat, 25 Mar 2006 07:01:08 +0100 (CET)
From: [iso-8859-1] Jan Bjяfffffffffff6rklund 
Subject: b/blockheads/hit_me_with_your_rythmstick.btab

Hit Me With Your Rythm Stick.btab
Ian Dury amp; The Blockheads
TablEdited by Poppamies
Tuning : E A D G 	Time Signature: 4/4

 tempo 104       |       |        |       |       |       |        
|--------------------------------|--------------------------------|
|--------------------------------|--3-1-1-------------------------|
|--------------------------------|--------3-3-1-1-3-3-1-1-3-1-----|
|------------------------------1-|----------------------------4-1-|

 |       |       |       |        |       |       |       |        
|--------------------------------|--------------------------------|
|--3-1-1-------------2/3-1-------|--3-1-1-------------------------|
|--------3-3-1-1-3-1-------------|--------3-3-1-1-3-3-1-1-3-1-----|
|------------------------------1-|----------------------------4-1-|

 |       |       |       |        |       |       |       |        
|--------------------------9/8---|--------------------------------|
|--3-1-1---------------6---------|--------------------------------|
|--------3-3-1-1-3-6-8-----------|1---1-----------3---3-----------|
|--------------------------------|------------------------------1-|

 |       |       |       |        |       |       |       |        
|--------------------------------|----------------------1-3-3-5---|
|--3-1-1-------------------------|--3-1-1-----------1-3-----------|
|--------3-3-1-1-3-3-1-1-3-1-----|--------3-3-1-1-3---------------|
|----------------------------4-1-|----------and so on.....------1-|

Transcribe  6.0 transcription http://www.seventhstring.demon.co.uk/
Created with TablEdit http://www.tabledit.com/
http://www.geocities.com/jani_bjorklund/janis.html


Расскажи друзьям!




Войдите, используя Ваш аккаунт:



Забыли пароль?
Зарегистрироваться

Привет, гитарист!

Пройди супер-курс по гитаре и порази всех своей игрой!

Забрать курс!
ВАМ ПОДАРКИ ОТ ПРОЕКТА
"ГИТАРНАЯ РЕВОЛЮЦИЯ"