Gitaristu.ru
Аккорды Табулатура Начинающим Мастер-класс Софт Видео Форум Блог
Новости Анонсы Гитары Гитаристы Статьи Аватарки Минусовки
Поиск





Популярные подборы




Настройка гитары






Главная > Аккорды > B > Blue Cheer

Аккорды
Blue Cheer
-
Out Of Focus bass (табулатура)



Подбор прислал: gitaristu.ru
===============================================================================
Out of Focus - Blue Cheer
===============================================================================

Tabbed By Tim N.

Out Of Focus by Blue Cheer

Intro
G|------7-7------|
D|--7\9-----9-7-5|
A|---------------|
E|---------------|

Riff 1
G|-------------------7-7------|
D|-------5---5---7\9-----9-7-5|
A|---7-7---7---7--------------|
E|-5--------------------------|

Riff 2
G|------------------------------|
D|------------------------------|
A|-5-5-5-57-7-77-7-75-5-55-5---3|
E|---------------------------5--|

Riff 3
G|-9-7-5------|
D|--------7-7-|
A|-------7-7--|
E|------------|

Breakdown
G|----------------------------------------------------------5-6-7-|
D|---------------------------5-6-7-7-7-2\7-7-7-2\7-7-7-2\7--------|
A|-7-7-7-2\7-7-7-2\7-7-7-2\7--------------------------------------|
E|----------------------------------------------------------------|

-7-7---7777-7\9-9-9---9999-9---999999---999999---7---------------|
-----7--------------9--------9--------9--------9----7\14/7---7-7/|
-----------------------------------------------------------------|
-----------------------------------------------------------------|

Outro
G|-9-7-5--------------|
D|-------7-5----------|
A|-----------7-5------|
E|---------------8-5--|

Legend:

\ Slide Up
/ Slide Down

Layout:
Intro x1
Riff 1 x3
Riff 2 x1
Riff 3 x1
Riff 1 x4
Riff 2 x1
Riff 3 x1
Riff 1 x4
Riff 2 x1
Riff 3 x1
Breakdown x1
Riff 1 x4
Riff 2 x1
Riff 3 x1
Breakdown x1
Riff 1 x4
Riff 2 x1
Outro x1

BLUE CHEER ROCKS!!!!!!!!!!!!!!!!

=============================================================================
Расскажи друзьям!




Войдите, используя Ваш аккаунт:



Забыли пароль?
Зарегистрироваться

Привет, гитарист!

Пройди супер-курс по гитаре и порази всех своей игрой!

Забрать курс!
ВАМ ПОДАРКИ ОТ ПРОЕКТА
"ГИТАРНАЯ РЕВОЛЮЦИЯ"